PrimaNota.ru - самый крупный в мире бесплатный архив песенных текстов, аккордов, табулатур и нот


Briggs - Charge Into The Sun - таба, видео

Регистрация Запомнить меня
Войти через:  Facebook Google Twitter Vk Yandex Mail.ru

Briggs - Charge Into The Sun - таба, видео

Печатать
Просмотров: 126
INTRO PART 1
e---------------------------------------|
b------------99-------------------------|
g-66-99-88-99--99-88-99----[11-13]--x3--|[]=play on 3rd time only
d---------------------------------------|
a---------------------------------------|
E---------------------------------------|

INTRO PART 2
e---------------------------------------|
b---------------------------------------|
g---------------------------------------|
d-11-13-14-16-18------------------------|
a-11-13-14-16-18------------------------|
E-9--11-12-14-16------------------------|


VERSE 1
e---------------------------------------|
b---------------------------------------|
g---------------------------------------|
d-11-2-6--------------------------------|
a-11-2-6--------------------------------|
E-9--0-4--------------------------------|

e---------------------------------------|
b---------------------------------------|
g---------------------------------------|
d-------------66------------------------|
a-44-77-66-77----77-66-77---------------|
E---------------------------------------|

e---------------------------------------|
b---------------------------------------|
g---------------------------------------|
d-11-2-6--------------------------------|
a-11-2-6--------------------------------|
E-9--0-4--------------------------------|

CHORUS
e------------------------------------------------|
b------------------------------------------------|
g------------------------------------------------|
d-7777-2222-6666-1111-99-7777-2222-66-42-66------|
a-7777-2222-6666-1111-99-7777-2222-66-42-66------|
E-5555-0000-4444-99---77-5555-0000-44-22-44------|

e-------------------------------------------------|
b-------------------------------------------------|
g-------------------------------------------------|
d-7777-2222-6666-1111-99-77-2222-66666666---------|
a-7777-2222-6666-1111-99-77-2222-66666666---------|
E-5555-0000-4444-99---77-55-0000-44444444---------|

e---------------------------------------|
b------------99-------------------------|
g-66-99-88-99--99-88-99-----------------|
d---------------------------------------|
a---------------------------------------|
E---------------------------------------|

VERSE x1
THEN
e---------------------------------------|
b-5555555-4-5555-7-5-4-5-4-2-0-2--------|
g---------------------------------------|not 100% on this part but its
d---------------------------------------|pretty good
a---------------------------------------|
E---------------------------------------|

i got some of the solo but not all so i decided to just not
tab it....so this is the part once the vocals come back in

e----------------------------------------------|
b----------------------------------------------|
g-9999999-8-9999999-8-6-4-9999999-111111111----|those are 11s.
d----------------------------------------------|x2 on last time stop at
a----------------------------------------------|downscale
E----------------------------------------------|

CHORUS x2
dont know the 2nd solo either.sorry charlie.

ENDING
e--------------------------------|
b--------------------------------|
g-44-66--------------------------| not 100% on this end part but close
d-44-66-66-----------------------|
a-22-44-66-----------------------|
E-------44-----------------------|
Добавлено: 27.07.2012
Другие материалы по этой песне:
  • Аккорды и текст

Страница создана 27.07.2012
http://primanota.ru/briggs/charge-into-the-sun-chords.htm
Привет, Гость.
Предлагаем пройти революционный курс по гитаре.
Подарок от PrimaNota.Ru, забирай!