PrimaNota.ru - самый крупный в мире бесплатный архив песенных текстов, аккордов, табулатур и нот


Briggs - Bloody Minds - таба, видео

Регистрация Запомнить меня
Войти через:  Facebook Google Twitter Vk Yandex Mail.ru

Briggs - Bloody Minds - таба, видео

Печатать
Просмотров: 135
everything is pretty close to 100% i didnt tab out the solo cuz i didnt get all of it. 
something is wrong u can figure it out its an easy one.

INTRO/VERSE
e----------------------------------------|
B----------------------------------------|
G--5-55-xx-x-5-55-xx-x------xx-x-5-55----|
D--5-55-xx-x-5-55-xx-x-5-55-xx-x-5-55----|x3
A--3-33-xx-x-3-33-xx-x-5-55-xx-x-3-33----|
E----------------------3-33--------------|

VERSE(cont.)
e---------------------------------------------|
B---------------------------------------------|
G--5-55-xx-x---------------------5-55-xx-x----|
D--5-55-xx-x-3-33-xx-x-3-33-xx-x-5-55-xx-x----|
A--3-33-xx-x-3-33-xx-x-3-33-xx-x-3-33-xx-x----|
E------------1-11-xx-x-1-11-xx-x--------------|

PRE-CHORUS
e---------------------------------------|
B---------------------------------------|
G-----------------5555-5555------5555---|REPEAT THE NON RINGING PART
D--5___-3___-5___-5555-5555-5555-5555---|
A--5___-3___-5___-3333-3333-5555-3333---|
E--3___-1___-3___-----------3333--------|

VERSE x1
PRE-CHORUS x1

CHORUS
e---------------------------------------|
B---------------------------------------|
G--55-------55--------------------------|
D--55-33-55-55-33-33-33-5---------------|x2
A--33-33-55-33-33-33-33-5---------------|
E-----11-33----11-11-11-3---------------|

VERSE x1
PRE-CHORUS(just the ringing chords) x1
CHORUS x2
PRE-CHORUS(all) x2

BRIDGE
e---------------------------------------|
B---------------------------------------|
G-------5555------3333------------------|
D--3333-5555-5555-4444------------------|x2
A--3333-3333-5555-2222------------------|
E--1111------3333-----------------------|

CHORUS x4-5(ish?)
Добавлено: 28.03.2012
Другие материалы по этой песне:
  • Аккорды и текст

Страница создана 28.03.2012
http://primanota.ru/briggs/bloody-minds-chords.htm
Привет, Гость.
Предлагаем пройти революционный курс по гитаре.
Подарок от PrimaNota.Ru, забирай!