PrimaNota.ru - самый крупный в мире бесплатный архив песенных текстов, аккордов, табулатур и нот


Brigade - What Are You Waiting For - текст песни, таба, видео

Регистрация Запомнить меня
Войти через:  Facebook Google Twitter Vk Yandex Mail.ru

Brigade - What Are You Waiting For - текст песни, таба, видео

Печатать
Просмотров: 248
Авторы музыки: Will Simpson
Авторы текста: Will Simpson
Band: Brigade
Song: What Are You Waiting For?
Album: Come Morning We Fight
Tabbed by: Deathcar Kid/Benji/19371
Released: 2008

Tuning: DADGBE

Intro:
e|---------------------------------------|
B|---------------------------------------|
G|---------------------------------------|
D|---------------------------------------|
A|---------------------------------------|
D|-0-0-10-12-0-0-12-13-0-0-10-12-0-0-8-7-|

e|---------------------------------------|
B|---------------------------------------|
G|---------------------------------------|
D|---------------------------------------|
A|---------------------------------------|
D|-0-0-10-12-0-0-12-13-0-0-8-10-0-0-5-7--|

e|---------------------------------------|
B|---------------------------------------|
G|---------------------------------------|
D|---------------------------------------|
A|---------------------------------------|
D|-0-0-10-12-0-0-12-13-0-0-10-12-0-0-8-7-|

e|---------------------------------------|
B|---------------------------------------|
G|---------------------------------------|
D|---------------------------------------|
A|---------------------------------------|
D|-0-0-10-12-0-0-12-13-0-0-8-10-0-0-5-7--|

e|---|
B|---|
G|---|
D|-0-|
A|-0-|
D|-0-|

Verse:
"I am sick"      "I am cynical"     "In your dirt"     "I'm still sustained"
e|--------------|------------------|------------------|---------------------|
B|--------------|------------------|------------------|---------------------|
G|-5-x16--------|-4-x-16-----------|-3-x16------------|-2-x16---------------|
D|--------------|------------------|------------------|---------------------|
A|--------------|------------------|------------------|---------------------|
D|--------------|------------------|------------------|---------------------|

"I am lost"      "I am wiser for"   "Firing walls"     "And climbing frames"
e|--------------|------------------|------------------|---------------------|
B|--------------|------------------|------------------|---------------------|
G|-5-x16--------|-4-x-16-----------|-3-x16------------|-2-x16---------------|
D|--------------|------------------|------------------|---------------------|
A|--------------|------------------|------------------|---------------------|
D|--------------|------------------|------------------|---------------------|

Chorus:
"I've fallen victim to doubt (get up or get out)"
e|---------------------------------------|
B|---------------------------------------|
G|---------------------------------------|
D|---------------------------------------|
A|---------------------------------------|
D|-0-0-10-12-0-0-12-13-0-0-10-12-0-0-8-7-|


"I've fallen victim to doubt (get up or get out)"
e|---------------------------------------|
B|---------------------------------------|
G|---------------------------------------|
D|---------------------------------------|
A|---------------------------------------|
D|-0-0-10-12-0-0-12-13-0-0-8-10-0-0-5-7--|

Verse:
"I won't lie"    "Before honesty"   "Set a light"      "I will blaze"
e|--------------|------------------|------------------|---------------------|
B|--------------|------------------|------------------|---------------------|
G|-7------------|-6----------------|-5----------------|-4-------------------|
D|---x8---------|---x8-------------|---x8-------------|---x8----------------|
A|-4------------|-4----------------|-3----------------|-2-------------------|
D|--------------|------------------|------------------|---------------------|

"To define"      "What I'm waiting for" "I'm entitled" "To hate"
e|--------------|------------------|------------------|---------------------|
B|--------------|------------------|------------------|---------------------|
G|-7------------|-6----------------|-5----------------|-4-------------------|
D|---x8---------|---x8-------------|---x8-------------|---x8----------------|
A|-4------------|-4----------------|-3----------------|-2-------------------|
D|--------------|------------------|------------------|---------------------|

Chorus:
"I've fallen victim to doubt (get up or get out)"
e|---------------------------------------|
B|---------------------------------------|
G|---------------------------------------|
D|---------------------------------------|
A|---------------------------------------|
D|-0-0-10-12-0-0-12-13-0-0-10-12-0-0-8-7-|


"I've fallen victim to doubt (get up or get out)"
e|---------------------------------------|
B|---------------------------------------|
G|---------------------------------------|
D|---------------------------------------|
A|---------------------------------------|
D|-0-0-10-12-0-0-12-13-0-0-8-10-0-0-5-7--|

"I've fallen victim to doubt (get up or get out)"
e|---------------------------------------|
B|---------------------------------------|
G|---------------------------------------|
D|---------------------------------------|
A|---------------------------------------|
D|-0-0-10-12-0-0-12-13-0-0-10-12-0-0-8-7-|


"I've fallen victim to doubt (get up or get out)"
e|---------------------------------------|
B|---------------------------------------|
G|---------------------------------------|
D|---------------------------------------|
A|---------------------------------------|
D|-0-0-10-12-0-0-12-13-0-0-8-10-0-0-5-7--|


e|---------------------------------------|
B|---------------------------------------|
G|---------------------------------------|
D|---------------------------------------|
A|---------------------------------------|
D|-0-0-10-12-000-12-13-0-0-10-12-000-8-7-|

e|---------------------------------------|
B|---------------------------------------|
G|---------------------------------------|
D|---------------------------------------|
A|---------------------------------------|
D|-0-0-10-12-000-12-13-0-0-8-10-000-5-7--|

e|---------------------------------------|
B|---------------------------------------|
G|---------------------------------------|
D|---------------------------------------|
A|---------------------------------------|
D|-0-0-10-12-000-12-13-0-0-10-12-000-8-7-|

e|---------------------------------------|
B|---------------------------------------|
G|---------------------------------------|
D|---------------------------------------|
A|---------------------------------------|
D|-0-0-10-12-000-12-13-0-0-8-10-000-5-7--|

Breakdown:
e|-------|-------|-------|-------|
B|-------|-------|-------|-------|
G|-------|-------|-------|-------|
D|-0-----|-0-----|-0-----|-0-----|
A|-0-x16-|-0-x16-|-0-x16-|-0-x16-|
D|-0-----|-0-----|-0-----|-0-----|

[Will starts to sing]
e|----------------------------|
B|---------------11-x4--10-x4-|
G|-10-x16--9-x16--------------|
D|----------------------------|
A|----------------------------|
D|----------------------------|

e|----------------------------|
B|---------------11-x4--10-x4-|
G|-10-x16--9-x16--------------|
D|----------------------------|
A|----------------------------|
D|----------------------------|

e|----------------------------|
B|----------------------------|
G|-10-x8--17-x5--12-x4--14-x6-|
D|----------------------------|
A|----------------------------|
D|----------------------------|

e|----------------------------|
B|----------------------------|
G|-10-x8--17-x5--12-x4--14-x6-|
D|----------------------------|
A|----------------------------|
D|----------------------------|

e|----------------------------|
B|----------------------------|
G|-10-x8--17-x5--12-x4--14-x6-|
D|----------------------------|
A|----------------------------|
D|----------------------------|

e|----------------------------|
B|----------------------------|
G|-10-x8--17-x5--12-x4--14-x6-|
D|----------------------------|
A|----------------------------|
D|----------------------------|

"I am sad"  "I'm hysterical"  "I'm so glad" "You're in pain"
e|---------|-----------------|-------------|----------------|
B|---------|-----------------|-------------|----------------|
G|---------|-----------------|-------------|----------------|
D|-0-------|-0---------------|-0-----------|-0--------------|
A|-0-------|-0---------------|-0-----------|-0--------------|
D|-0-------|-0---------------|-0-----------|-0--------------|

"I am tired" "I am ridiculed"  "I am sane"   "And I can't stand the sight of you now"
e|----------|-----------------|-------------|----------------|
B|----------|-----------------|-------------|----------------|
G|----------|-----------------|-------------|----------------|
D|-0--------|-0---------------|-0-----------|-0--------------|
A|-0--------|-0---------------|-0-----------|-0--------------|
D|-0--------|-0---------------|-0-----------|-0--------------|

"I've fallen victim to doubt (get up or get out)"
e|---------------------------------------|
B|---------------------------------------|
G|---------------------------------------|
D|---------------------------------------|
A|---------------------------------------|
D|-0-0-10-12-0-0-12-13-0-0-10-12-0-0-8-7-|


"I've fallen victim to doubt (get up or get out)"
e|---------------------------------------|
B|---------------------------------------|
G|---------------------------------------|
D|---------------------------------------|
A|---------------------------------------|
D|-0-0-10-12-0-0-12-13-0-0-8-10-0-0-5-7--|

"I've fallen victim to doubt (get up or get out)"
e|---------------------------------------|
B|---------------------------------------|
G|---------------------------------------|
D|---------------------------------------|
A|---------------------------------------|
D|-0-0-10-12-0-0-12-13-0-0-10-12-0-0-8-7-|


"I've fallen victim to doubt (get up or get out)"
e|---------------------------------------|
B|---------------------------------------|
G|---------------------------------------|
D|---------------------------------------|
A|---------------------------------------|
D|-0-0-10-12-0-0-12-13-0-0-8-10-0-0-5-7--|


e|-----------------------------------------------------|
B|-----------------------------------------------------|
G|-----------------------------------------------------|
D|-----------------------------------------------------|
A|-----------------------------------------------------|
D|-0-0-10-12-0-0-10-12-0-0-10-12-0-0-10-12-13-12-10-12-|

e|-----------------------------------------------------|
B|-----------------------------------------------------|
G|-----------------------------------------------------|
D|-----------------------------------------------------|
A|-----------------------------------------------------|
D|-0-0-10-12-0-0-10-12-0-0-10-12-0-0-10-12-13-12-10-12-|

e|-----------------------------------------------------|
B|-----------------------------------------------------|
G|-----------------------------------------------------|
D|-----------------------------------------------------|
A|-----------------------------------------------------|
D|-0-0-10-12-0-0-10-12-0-0-10-12-0-0-10-12-13-12-10-12-|

e|-----------------------------------------------|
B|-----------------------------------------------|
G|-----------------------------------------------|
D|---------------------------------------------7-|
A|---------------------------------------------7-|
D|-0-0-10-12-0-0-10-12-0-0-10-12-0-0-5-7-8-7-5-7-|

That's it. Good luck. It's an awesome song.
Добавлено: 25.03.2012
Другие материалы по этой песне:
  • Аккорды и текст

Страница создана 25.03.2012
http://primanota.ru/brigade/what-are-you-waiting-for-chords.htm
Привет, Гость.
Предлагаем пройти революционный курс по гитаре.
Подарок от PrimaNota.Ru, забирай!