PrimaNota.ru - самый крупный в мире бесплатный архив песенных текстов, аккордов, табулатур и нот


Brigade - Null And Void - текст песни, таба, видео

Регистрация Запомнить меня
Войти через:  Facebook Google Twitter Vk Yandex Mail.ru

Brigade - Null And Void - текст песни, таба, видео

Печатать
Просмотров: 142
-----------------------------------------------------------------------------
                           Null And Void - Brigade
-----------------------------------------------------------------------------
Tabbed by:
Email:

Tuning: Drop D stlye but everything up a step (E,B,E,A,Db,Gb)
Same effect as a capo

Guitar 1 - Will Simpson

Intro
|--------------------------------------------------------------------------|
|--------------------------------------------------------------------------|
|--3333333333333-5555-0000000000000000000000000----------------------------|
|--------------------------------------------------------------------------|
|--------------------------------------------------------------------------|
|--------------------------------------------------------------------------|

|--------------------------------------------------------------------------|
|--------------------------------------------------------------------------|
|--7-7-77-7-7-77--7-7-77-7-7-77--------------------------------------------|
|--5-5-55-5-5-55--5-5-55-5-5-55--------------------------------------------|
|--5-5-55-5-5-55--5-5-55-5-5-55--------------------------------------------|
|--5-5-55-5-5-55--5-5-55-5-5-55--------------------------------------------|

Verse
|--------------------------------------------------------------------------|
|--------------------------------------------------------------------------|
|--3333333333333-5555-0000000000000000000000000----------------------------|
|--------------------------------------------------------------------------|
|--------------------------------------------------------------------------|
|--------------------------------------------------------------------------|

|--------------------------------------------------------------------------|
|--------------------------------------------------------------------------|
|--7-7-77-7-7-77--7-7-77-7-7-77--------------------------------------------|
|--5-5-55-5-5-55--5-5-55-5-5-55--------------------------------------------|
|--5-5-55-5-5-55--5-5-55-5-5-55--------------------------------------------|
|--5-5-55-5-5-55--5-5-55-5-5-55--------------------------------------------|

Chorus
|--------------------------------------------------------------------------|
|--------------------------------------------------------------------------|
|--------------------------------------------------------------------------|
|--5c-------------0c----------8c------10c-----0c---------------------------|
|--5c-------------0c----------8c------10c-----0c---------------------------|
|--5c-------------0c----------8c------10c-----0c---------------------------|

Verse
|--------------------------------------------------------------------------|
|--------------------------------------------------------------------------|
|--3333333333333-5555-0000000000000000000000000----------------------------|
|--------------------------------------------------------------------------|
|--------------------------------------------------------------------------|
|--------------------------------------------------------------------------|

|--------------------------------------------------------------------------|
|--------------------------------------------------------------------------|
|--7-7-77-7-7-77--7-7-77-7-7-77--------------------------------------------|
|--5-5-55-5-5-55--5-5-55-5-5-55--------------------------------------------|
|--5-5-55-5-5-55--5-5-55-5-5-55--------------------------------------------|
|--5-5-55-5-5-55--5-5-55-5-5-55--------------------------------------------|

Chorus
|--------------------------------------------------------------------------|
|--------------------------------------------------------------------------|
|--------------------------------------------------------------------------|
|--5c-------------0c----------8c------10c-----0c---------------------------|
|--5c-------------0c----------8c------10c-----0c---------------------------|
|--5c-------------0c----------8c------10c-----0c---------------------------|

Bridge (Faintly played on clean guitar)
|--------------------------------------------------------------------------|
|--------------------------------------------------------------------------|
|--7c----------------------------------------------------------------------|
|--7c---8c-----10c---------------------------------------------------------|
|--5c---8c-----10c---------------------------------------------------------|
|-------8c-----10c---------------------------------------------------------|

Distortion
|--------------------------------------------------------------------------|
|--------------------------------------------------------------------------|
|--------------------------------------------------------------------------|
|--0---0------------0---0-----------0--------0-----------------------------|
|--0---0------------0---0-----------0--------0-----------------------------|
|--0---0------------0---0-----------0--------0-----------------------------|

Heavy part
|--------------------------------------------------------------------------|
|--------------------------------------------------------------------------|
|--10c-------12c------10c-----9c-------------------------------------------|
|--8c--------10c------8c------7c-------------------------------------------|
|--8c--------10c------8c------7c-------------------------------------------|
|--8c--------10c------8c------7c-------------------------------------------|

|--------------------------------------------------------------------------|
|--------------------------------------------------------------------------|
|--------------------------------------------------------------------------|
|--00000000000000000-------------------------------------------------------|
|--00000000000000000-------------------------------------------------------|
|--00000000000000000-------------------------------------------------------|

Chorus
|--------------------------------------------------------------------------|
|--------------------------------------------------------------------------|
|--------------------------------------------------------------------------|
|--5c-------------0c----------8c------10c-----0c------8c-----10c---0c------|
|--5c-------------0c----------8c------10c-----0c------8c-----10c---0c------|
|--5c-------------0c----------8c------10c-----0c------8c-----10c---0c------|

|--------------------------------------------------------------------------|
|--------------------------------------------------------------------------|
|--------------------------------------------------------------------------|
|--0~----------------------------------------------------------------------|
|--0~----------------------------------------------------------------------|
|--0~----------------------------------------------------------------------|

Guitar 2 - James Plant

|--------------------------------------------------------------------------|
|--------------------------------------------------------------------------|
|--------------------------------------------------------------------------|
|--0000000000000--22222----------------------------------------------------|
|-----------------------2222222222----------0000000-111111-333333----------|
|----------------------------------55555555--------------------------------|

|--------------------------------------------------------------------------|
|--------------------------------------------------------------------------|
|--10-10--1010--10--10-1010------------------------------------------------|
|--x--x---x-x---x---x--x-x-------------------------------------------------|
|--8--8---8-8---8---8--8-8-------------------------------------------------|
|--------------------------------------------------------------------------|

Verse
|--------------------------------------------------------------------------|
|--------------------------------------------------------------------------|
|--------------------------------------------------------------------------|
|--0000000000000--22222----------------------------------------------------|
|-----------------------2222222222----------0000000-111111-333333----------|
|----------------------------------55555555--------------------------------|

|--------------------------------------------------------------------------|
|--------------------------------------------------------------------------|
|--10-10--1010--10--10-1010------------------------------------------------|
|--x--x---x-x---x---x--x-x-------------------------------------------------|
|--8--8---8-8---8---8--8-8-------------------------------------------------|
|--------------------------------------------------------------------------|

Chorus
|--------------------------------------------------------------------------|
|--------------------------------------------------------------------------|
|--77777777-666-9999999999999999--77777777-666-9999999999999999----11c-----|
|--------------------------------------------------------------------------|
|--------------------------------------------------------------------------|
|--------------------------------------------------------------------------|

|--------------------------------------------------------------------------|
|--------------------------------------------------------------------------|
|--101010101010-99999999-1212121212121212----------------------------------|
|--------------------------------------------------------------------------|
|--------------------------------------------------------------------------|
|--------------------------------------------------------------------------|

|--------------------------------------------------------------------------|
|--------------------------------------------------------------------------|
|--5c----------------------------------------------------------------------|
|--x-----------------------------------------------------------------------|
|--3c----------------------------------------------------------------------|
|--------------------------------------------------------------------------|

Verse
|--------------------------------------------------------------------------|
|--------------------------------------------------------------------------|
|--------------------------------------------------------------------------|
|--0000000000000--22222----------------------------------------------------|
|-----------------------2222222222----------0000000-111111-333333----------|
|----------------------------------55555555--------------------------------|


|--------------------------------------------------------------------------|
|--------------------------------------------------------------------------|
|--10-10--1010--10--10-1010------------------------------------------------|
|--x--x---x-x---x---x--x-x-------------------------------------------------|
|--8--8---8-8---8---8--8-8-------------------------------------------------|
|--------------------------------------------------------------------------|

Chorus
|--------------------------------------------------------------------------|
|--------------------------------------------------------------------------|
|--77777777-666-9999999999999999--77777777-666-9999999999999999----11c-----|
|--------------------------------------------------------------------------|
|--------------------------------------------------------------------------|
|--------------------------------------------------------------------------|

|--------------------------------------------------------------------------|
|--------------------------------------------------------------------------|
|--101010101010-99999999-1212121212121212----------------------------------|
|--------------------------------------------------------------------------|
|--------------------------------------------------------------------------|
|--------------------------------------------------------------------------|

Bridge Clean
|--------------------------------------------------------------------------|
|--------------------------------------------------------------------------|
|------10-----10-----9-----12----12----------------------------------------|
|----7------7------7-----7-----7-------------------------------------------|
|--8------8------8-----8-----8---------------------------------------------|
|--------------------------------------------------------------------------|

Distortion
|--------------------------------------------------------------------------|
|--------------------------------------------------------------------------|
|--------------------------------------------------------------------------|
|--0---0------------0---0-----------0--------0-----------------------------|
|--0---0------------0---0-----------0--------0-----------------------------|
|--0---0------------0---0-----------0--------0-----------------------------|

|--------------------------------------------------------------------------|
|--------------------------------------------------------------------------|
|--10c-----9c------12c-----------------------------------------------------|
|--x-------x-------x-------------------------------------------------------|
|--8c------7c------10c-----------------------------------------------------|
|--------------------------------------------------------------------------|

|--------------------------------------------------------------------------|
|--------------------------------------------------------------------------|
|--------------------------------------------------------------------------|
|--00000000000000000-------------------------------------------------------|
|--00000000000000000-------------------------------------------------------|
|--00000000000000000-------------------------------------------------------|

Chorus
|--------------------------------------------------------------------------|
|--------------------------------------------------------------------------|
|--77777777-666-9999999999999999--77777777-666-9999999999999999----11c-----|
|--------------------------------------------------------------------------|
|--------------------------------------------------------------------------|
|--------------------------------------------------------------------------|

|--------------------------------------------------------------------------|
|--------------------------------------------------------------------------|
|--101010101010-99999999-1212121212121212----------------------------------|
|--------------------------------------------------------------------------|
|--------------------------------------------------------------------------|
|--------------------------------------------------------------------------|

|--------------------------------------------------------------------------|
|--------------------------------------------------------------------------|
|--101010101010-99999999-1212121212121212----------------------------------|
|--------------------------------------------------------------------------|
|--------------------------------------------------------------------------|
|--------------------------------------------------------------------------|

Outro
|--------------------------------------------------------------------------|
|--------------------------------------------------------------------------|
|--------------------------------------------------------------------------|
|--0~----------------------------------------------------------------------|
|--0~----------------------------------------------------------------------|
|--0~----------------------------------------------------------------------|
Добавлено: 29.05.2012
Другие материалы по этой песне:
  • Аккорды и текст

Страница создана 29.05.2012
http://primanota.ru/brigade/null-and-void-chords.htm
Привет, Гость.
Предлагаем пройти революционный курс по гитаре.
Подарок от PrimaNota.Ru, забирай!