PrimaNota.ru - самый крупный в мире бесплатный архив песенных текстов, аккордов, табулатур и нот


Brigade - Four Kids To A Glokenspiel - таба, видео

Регистрация Запомнить меня
Войти через:  Facebook Google Twitter Vk Yandex Mail.ru

Brigade - Four Kids To A Glokenspiel - таба, видео

Печатать
Просмотров: 178
Band: Brigade
Song: 4 Kids To A Glockenspiel
Album: Come Morning We Fight
Tabbed by: Deathcar Kid/Benji/19371
Released: 2008

Tuning: DADGBE

Guitar 1 - Will Simpson


e|---------------------------------------------------------------------------|
B|-----8-8-------7-7---------------------------------------------------------|
G|------------------------6-6------6-6------7-7------11-11------9-9------4-4-|
D|-5-5-------4-4-------------------------------------------------------------|
A|--------------------4-4------4-4------5-5------9-9--------7-7------2-2-----|
D|---------------------------------------------------------------------------|


e|---------------------------------------------------------------------------|
B|-----8-8-------7-7---------------------------------------------------------|
G|------------------------6-6------6-6------7-7------11-11------9-9------4-4-|
D|-5-5-------4-4-------------------------------------------------------------|
A|--------------------4-4------4-4------5-5------9-9--------7-7------2-2-----|
D|---------------------------------------------------------------------------|

[Vocals enter]
e|---------------------------------------------------------------------------|
B|-----8-8-------7-7---------------------------------------------------------|
G|------------------------6-6------6-6------7-7------11-11------9-9------4-4-|
D|-5-5-------4-4-------------------------------------------------------------|
A|--------------------4-4------4-4------5-5------9-9--------7-7------2-2-----|
D|---------------------------------------------------------------------------|


e|---------------------------------------------------------------------------|
B|-----8-8-------7-7---------------------------------------------------------|
G|------------------------6-6------6-6------7-7------11-11------9-9------4-4-|
D|-5-5-------4-4-------------------------------------------------------------|
A|--------------------4-4------4-4------5-5------9-9--------7-7------2-2-----|
D|---------------------------------------------------------------------------|


e|-------------------------------------|
B|-------------------------------------|
G|-------------------------------------|
D|-------------------------------------|
A|-7-x16--9-x16--11-x16--12-x8--14-x8--|
D|-------------------------------------|


"I still reside..."                 "I'll make the same..."
e|---------------------------------|---------------------------------|
B|---------------------------------|---------------------------------|
G|---------------------------------|-2-2-2-2-2-2-2-2-2-2-2-2-2-2-2-2-|
D|-2-2-2-2-2-2-2-2-2-2-2-2-2-2-2-2-|-2-2-2-2-2-2-2-2-2-2-2-2-2-2-2-2-|
A|-2-2-2-2-2-2-2-2-2-2-2-2-2-2-2-2-|-0-0-0-0-0-0-0-0-0-0-0-0-0-0-0-0-|
D|-2-2-2-2-2-2-2-2-2-2-2-2-2-2-2-2-|---------------------------------|

"I won't escape..."                 "The death inside..."
e|---------------------------------|---------------------------------|
B|---------------------------------|---------------------------------|
G|---------------------------------|-2-2-2-2-2-2-2-2-2-2-2-2-2-2-2-2-|
D|-2-2-2-2-2-2-2-2-2-2-2-2-2-2-2-2-|-2-2-2-2-2-2-2-2-2-2-2-2-2-2-2-2-|
A|-2-2-2-2-2-2-2-2-2-2-2-2-2-2-2-2-|-0-0-0-0-0-0-0-0-0-0-0-0-0-0-0-0-|
D|-2-2-2-2-2-2-2-2-2-2-2-2-2-2-2-2-|---------------------------------|

"I still remember..."               "You said that I'm..."
e|---------------------------------|---------------------------------|
B|---------------------------------|---------------------------------|
G|---------------------------------|-2-2-2-2-2-2-2-2-2-2-2-2-2-2-2-2-|
D|-2-2-2-2-2-2-2-2-2-2-2-2-2-2-2-2-|-2-2-2-2-2-2-2-2-2-2-2-2-2-2-2-2-|
A|-2-2-2-2-2-2-2-2-2-2-2-2-2-2-2-2-|-0-0-0-0-0-0-0-0-0-0-0-0-0-0-0-0-|
D|-2-2-2-2-2-2-2-2-2-2-2-2-2-2-2-2-|---------------------------------|

"And if you want..."                "You'll always be my heart..."
e|---------------------------------|---------------------------------|
B|---------------------------------|---------------------------------|
G|---------------------------------|-2-2-2-2-2-2-2-2-2-2-2-2-2-2-2-2-|
D|-2-2-2-2-2-2-2-2-2-2-2-2-2-2-2-2-|-2-2-2-2-2-2-2-2-2-2-2-2-2-2-2-2-|
A|-2-2-2-2-2-2-2-2-2-2-2-2-2-2-2-2-|-0-0-0-0-0-0-0-0-0-0-0-0-0-0-0-0-|
D|-2-2-2-2-2-2-2-2-2-2-2-2-2-2-2-2-|---------------------------------|

e|---------------------------------------------------------------------------|
B|-----8-8-------7-7---------------------------------------------------------|
G|------------------------6-6------6-6------7-7------11-11------9-9------4-4-|
D|-5-5-------4-4-------------------------------------------------------------|
A|--------------------4-4------4-4------5-5------9-9--------7-7------2-2-----|
D|---------------------------------------------------------------------------|


e|---------------------------------------------------------------------------|
B|-----8-8-------7-7---------------------------------------------------------|
G|------------------------6-6------6-6------7-7------11-11------9-9------4-4-|
D|-5-5-------4-4-------------------------------------------------------------|
A|--------------------4-4------4-4------5-5------9-9--------7-7------2-2-----|
D|---------------------------------------------------------------------------|

[Vocals enter]
e|---------------------------------------------------------------------------|
B|-----8-8-------7-7---------------------------------------------------------|
G|------------------------6-6------6-6------7-7------11-11------9-9------4-4-|
D|-5-5-------4-4-------------------------------------------------------------|
A|--------------------4-4------4-4------5-5------9-9--------7-7------2-2-----|
D|---------------------------------------------------------------------------|


e|---------------------------------------------------------------------------|
B|-----8-8-------7-7---------------------------------------------------------|
G|------------------------6-6------6-6------7-7------11-11------9-9------4-4-|
D|-5-5-------4-4-------------------------------------------------------------|
A|--------------------4-4------4-4------5-5------9-9--------7-7------2-2-----|
D|---------------------------------------------------------------------------|


e|-------------------------------------|
B|-------------------------------------|
G|-------------------------------------|
D|-------------------------------------|
A|-7-x16--9-x16--11-x16--12-x8--14-x8--|
D|-------------------------------------|


"I still reside..."                 "I'll make the same..."
e|---------------------------------|---------------------------------|
B|---------------------------------|---------------------------------|
G|---------------------------------|-2-2-2-2-2-2-2-2-2-2-2-2-2-2-2-2-|
D|-2-2-2-2-2-2-2-2-2-2-2-2-2-2-2-2-|-2-2-2-2-2-2-2-2-2-2-2-2-2-2-2-2-|
A|-2-2-2-2-2-2-2-2-2-2-2-2-2-2-2-2-|-0-0-0-0-0-0-0-0-0-0-0-0-0-0-0-0-|
D|-2-2-2-2-2-2-2-2-2-2-2-2-2-2-2-2-|---------------------------------|

"I won't escape..."                 "The death inside..."
e|---------------------------------|---------------------------------|
B|---------------------------------|---------------------------------|
G|---------------------------------|-2-2-2-2-2-2-2-2-2-2-2-2-2-2-2-2-|
D|-2-2-2-2-2-2-2-2-2-2-2-2-2-2-2-2-|-2-2-2-2-2-2-2-2-2-2-2-2-2-2-2-2-|
A|-2-2-2-2-2-2-2-2-2-2-2-2-2-2-2-2-|-0-0-0-0-0-0-0-0-0-0-0-0-0-0-0-0-|
D|-2-2-2-2-2-2-2-2-2-2-2-2-2-2-2-2-|---------------------------------|

"I still remember..."               "You said that I'm..."
e|---------------------------------|---------------------------------|
B|---------------------------------|---------------------------------|
G|---------------------------------|-2-2-2-2-2-2-2-2-2-2-2-2-2-2-2-2-|
D|-2-2-2-2-2-2-2-2-2-2-2-2-2-2-2-2-|-2-2-2-2-2-2-2-2-2-2-2-2-2-2-2-2-|
A|-2-2-2-2-2-2-2-2-2-2-2-2-2-2-2-2-|-0-0-0-0-0-0-0-0-0-0-0-0-0-0-0-0-|
D|-2-2-2-2-2-2-2-2-2-2-2-2-2-2-2-2-|---------------------------------|

"And if you want..."                "You'll always be my heart..."
e|---------------------------------|---------------------------------|
B|---------------------------------|---------------------------------|
G|---------------------------------|-2-2-2-2-2-2-2-2-2-2-2-2-2-2-2-2-|
D|-2-2-2-2-2-2-2-2-2-2-2-2-2-2-2-2-|-2-2-2-2-2-2-2-2-2-2-2-2-2-2-2-2-|
A|-2-2-2-2-2-2-2-2-2-2-2-2-2-2-2-2-|-0-0-0-0-0-0-0-0-0-0-0-0-0-0-0-0-|
D|-2-2-2-2-2-2-2-2-2-2-2-2-2-2-2-2-|---------------------------------|

[Instrumental]
e|---------------------------------|---------------------------------|
B|---------------------------------|---------------------------------|
G|---------------------------------|-2-2-2-2-2-2-2-2-2-2-2-2-2-2-2-2-|
D|-2-2-2-2-2-2-2-2-2-2-2-2-2-2-2-2-|-2-2-2-2-2-2-2-2-2-2-2-2-2-2-2-2-|
A|-2-2-2-2-2-2-2-2-2-2-2-2-2-2-2-2-|-0-0-0-0-0-0-0-0-0-0-0-0-0-0-0-0-|
D|-2-2-2-2-2-2-2-2-2-2-2-2-2-2-2-2-|---------------------------------|

e|---------------------------------|---------------------------------|
B|---------------------------------|---------------------------------|
G|---------------------------------|-2-2-2-2-2-2-2-2-2-2-2-2-2-2-2-2-|
D|-2-2-2-2-2-2-2-2-2-2-2-2-2-2-2-2-|-2-2-2-2-2-2-2-2-2-2-2-2-2-2-2-2-|
A|-2-2-2-2-2-2-2-2-2-2-2-2-2-2-2-2-|-0-0-0-0-0-0-0-0-0-0-0-0-0-0-0-0-|
D|-2-2-2-2-2-2-2-2-2-2-2-2-2-2-2-2-|---------------------------------|

e|---------------------------------|---------------------------------|
B|---------------------------------|---------------------------------|
G|---------------------------------|-2-2-2-2-2-2-2-2-2-2-2-2-2-2-2-2-|
D|-2-2-2-2-2-2-2-2-2-2-2-2-2-2-2-2-|-2-2-2-2-2-2-2-2-2-2-2-2-2-2-2-2-|
A|-2-2-2-2-2-2-2-2-2-2-2-2-2-2-2-2-|-0-0-0-0-0-0-0-0-0-0-0-0-0-0-0-0-|
D|-2-2-2-2-2-2-2-2-2-2-2-2-2-2-2-2-|---------------------------------|

e|---------------------------------|---------------------------------|
B|---------------------------------|---------------------------------|
G|---------------------------------|-2-2-2-2-2-2-2-2-2-2-2-2-2-2-2-2-|
D|-2-2-2-2-2-2-2-2-2-2-2-2-2-2-2-2-|-2-2-2-2-2-2-2-2-2-2-2-2-2-2-2-2-|
A|-2-2-2-2-2-2-2-2-2-2-2-2-2-2-2-2-|-0-0-0-0-0-0-0-0-0-0-0-0-0-0-0-0-|
D|-2-2-2-2-2-2-2-2-2-2-2-2-2-2-2-2-|---------------------------------|

e|---------------------------------|---------------------------------|
B|---------------------------------|---------------------------------|
G|---------------------------------|-2-2-2-2-2-2-2-2-2-2-2-2-2-2-2-2-|
D|-2-2-2-2-2-2-2-2-2-2-2-2-2-2-2-2-|-2-2-2-2-2-2-2-2-2-2-2-2-2-2-2-2-|
A|-2-2-2-2-2-2-2-2-2-2-2-2-2-2-2-2-|-0-0-0-0-0-0-0-0-0-0-0-0-0-0-0-0-|
D|-2-2-2-2-2-2-2-2-2-2-2-2-2-2-2-2-|---------------------------------|

e|---------------------------------|---------------------------------|
B|---------------------------------|---------------------------------|
G|---------------------------------|-2-2-2-2-2-2-2-2-2-2-2-2-2-2-2-2-|
D|-2-2-2-2-2-2-2-2-2-2-2-2-2-2-2-2-|-2-2-2-2-2-2-2-2-2-2-2-2-2-2-2-2-|
A|-2-2-2-2-2-2-2-2-2-2-2-2-2-2-2-2-|-0-0-0-0-0-0-0-0-0-0-0-0-0-0-0-0-|
D|-2-2-2-2-2-2-2-2-2-2-2-2-2-2-2-2-|---------------------------------|

"I still reside..."                 "I'll make the same..."
e|---------------------------------|---------------------------------|
B|---------------------------------|---------------------------------|
G|---------------------------------|-2-2-2-2-2-2-2-2-2-2-2-2-2-2-2-2-|
D|-2-2-2-2-2-2-2-2-2-2-2-2-2-2-2-2-|-2-2-2-2-2-2-2-2-2-2-2-2-2-2-2-2-|
A|-2-2-2-2-2-2-2-2-2-2-2-2-2-2-2-2-|-0-0-0-0-0-0-0-0-0-0-0-0-0-0-0-0-|
D|-2-2-2-2-2-2-2-2-2-2-2-2-2-2-2-2-|---------------------------------|

"I won't escape..."                 "The death inside..."
e|---------------------------------|---------------------------------|
B|---------------------------------|---------------------------------|
G|---------------------------------|-2-2-2-2-2-2-2-2-2-2-2-2-2-2-2-2-|
D|-2-2-2-2-2-2-2-2-2-2-2-2-2-2-2-2-|-2-2-2-2-2-2-2-2-2-2-2-2-2-2-2-2-|
A|-2-2-2-2-2-2-2-2-2-2-2-2-2-2-2-2-|-0-0-0-0-0-0-0-0-0-0-0-0-0-0-0-0-|
D|-2-2-2-2-2-2-2-2-2-2-2-2-2-2-2-2-|---------------------------------|

"I still remember..."               "You said that I'm..."
e|---------------------------------|---------------------------------|
B|---------------------------------|---------------------------------|
G|---------------------------------|-2-2-2-2-2-2-2-2-2-2-2-2-2-2-2-2-|
D|-2-2-2-2-2-2-2-2-2-2-2-2-2-2-2-2-|-2-2-2-2-2-2-2-2-2-2-2-2-2-2-2-2-|
A|-2-2-2-2-2-2-2-2-2-2-2-2-2-2-2-2-|-0-0-0-0-0-0-0-0-0-0-0-0-0-0-0-0-|
D|-2-2-2-2-2-2-2-2-2-2-2-2-2-2-2-2-|---------------------------------|

"And if you want..."                "You'll always be my heart..."
e|---------------------------------|---------------------------------|
B|---------------------------------|---------------------------------|
G|---------------------------------|-2-2-2-2-2-2-2-2-2-2-2-2-2-2-2-2-|
D|-2-2-2-2-2-2-2-2-2-2-2-2-2-2-2-2-|-2-2-2-2-2-2-2-2-2-2-2-2-2-2-2-2-|
A|-2-2-2-2-2-2-2-2-2-2-2-2-2-2-2-2-|-0-0-0-0-0-0-0-0-0-0-0-0-0-0-0-0-|
D|-2-2-2-2-2-2-2-2-2-2-2-2-2-2-2-2-|---------------------------------|

______________________________________________________________________

Guitar 2 - James Plant

e|--------------------------------------------------------------------------|
B|--------------------------------------------------------------------------|
G|--------------------------------------------------------------------------|
D|------------------[WAIT WHILE GUITAR 1 PLAYS]-----------------------------|
A|--------------------------------------------------------------------------|
D|--------------------------------------------------------------------------|

e|---------------------------|-------------------------------|
B|-10-X16--8-X8--7-X8--5-X16-|-10-X16--12-X8--15-X8--17-X16--|
G|---------------------------|-------------------------------|
D|---------------------------|-------------------------------|
A|---------------------------|-------------------------------|
D|---------------------------|-------------------------------|

[Vocals enter]
e|---------------------------|-------------------------------|
B|-10-X16--8-X8--7-X8--5-X16-|-10-X16--12-X8--15-X8--17-X16--|
G|---------------------------|-------------------------------|
D|---------------------------|-------------------------------|
A|---------------------------|-------------------------------|
D|---------------------------|-------------------------------|

e|---------------------------|-------------------------------|
B|-10-X16--8-X8--7-X8--5-X16-|-10-X16--12-X8--15-X8--17-X16--|
G|---------------------------|-------------------------------|
D|---------------------------|-------------------------------|
A|---------------------------|-------------------------------|
D|---------------------------|-------------------------------|

e|-------------------------------------|
B|-------------------------------------|
G|-------------------------------------|
D|-------------------------------------|
A|-7-x16--9-x16--11-x16--12-x8--14-x8--|
D|-------------------------------------|


"I still reside..."                 "I'll make the same..."
e|---------------------------------|---------------------------------|
B|---------------------------------|---------------------------------|
G|-9-x4--11-x4--13-x4--14-x4-------|-9-x4--11-x4--13-x4--14-x4-------|
D|---------------------------------|---------------------------------|
A|---------------------------------|---------------------------------|
D|---------------------------------|---------------------------------|

"I won't escape..."                 "The death inside..."
e|---------------------------------|---------------------------------|
B|---------------------------------|---------------------------------|
G|-6-x4--8-x4--9-x4--11-x4---------|-6-x4--8-x4--9-x4--11-x4---------|
D|---------------------------------|---------------------------------|
A|---------------------------------|---------------------------------|
D|---------------------------------|---------------------------------|

"I still remember..."               "You said that I'm..."
e|---------------------------------|---------------------------------|
B|---------------------------------|---------------------------------|
G|-9-x4--11-x4--13-x4--14-x4-------|-9-x4--11-x4--13-x4--14-x4-------|
D|---------------------------------|---------------------------------|
A|---------------------------------|---------------------------------|
D|---------------------------------|---------------------------------|

"And if you want..."                "You'll always be my heart..."
e|---------------------------------|---------------------------------|
B|---------------------------------|---------------------------------|
G|-6-x4--8-x4--9-x4--11-x4---------|-6-x4--8-x4--9-x4--11-x4---------|
D|---------------------------------|---------------------------------|
A|---------------------------------|---------------------------------|
D|---------------------------------|---------------------------------|


e|--------------------------------------------------------------------------|
B|--------------------------------------------------------------------------|
G|--------------------------------------------------------------------------|
D|------------------[WAIT WHILE GUITAR 1 PLAYS]-----------------------------|
A|--------------------------------------------------------------------------|
D|--------------------------------------------------------------------------|

e|---------------------------|-------------------------------|
B|-10-X16--8-X8--7-X8--5-X16-|-10-X16--12-X8--15-X8--17-X16--|
G|---------------------------|-------------------------------|
D|---------------------------|-------------------------------|
A|---------------------------|-------------------------------|
D|---------------------------|-------------------------------|

[Vocals enter]
e|---------------------------|-------------------------------|
B|-10-X16--8-X8--7-X8--5-X16-|-10-X16--12-X8--15-X8--17-X16--|
G|---------------------------|-------------------------------|
D|---------------------------|-------------------------------|
A|---------------------------|-------------------------------|
D|---------------------------|-------------------------------|

e|---------------------------|-------------------------------|
B|-10-X16--8-X8--7-X8--5-X16-|-10-X16--12-X8--15-X8--17-X16--|
G|---------------------------|-------------------------------|
D|---------------------------|-------------------------------|
A|---------------------------|-------------------------------|
D|---------------------------|-------------------------------|

e|-------------------------------------|
B|-------------------------------------|
G|-------------------------------------|
D|-------------------------------------|
A|-7-x16--9-x16--11-x16--12-x8--14-x8--|
D|-------------------------------------|


"I still reside..."                 "I'll make the same..."
e|---------------------------------|---------------------------------|
B|---------------------------------|---------------------------------|
G|-9-x4--11-x4--13-x4--14-x4-------|-9-x4--11-x4--13-x4--14-x4-------|
D|---------------------------------|---------------------------------|
A|---------------------------------|---------------------------------|
D|---------------------------------|---------------------------------|

"I won't escape..."                 "The death inside..."
e|---------------------------------|---------------------------------|
B|---------------------------------|---------------------------------|
G|-6-x4--8-x4--9-x4--11-x4---------|-6-x4--8-x4--9-x4--11-x4---------|
D|---------------------------------|---------------------------------|
A|---------------------------------|---------------------------------|
D|---------------------------------|---------------------------------|

"I still remember..."               "You said that I'm..."
e|---------------------------------|---------------------------------|
B|---------------------------------|---------------------------------|
G|-9-x4--11-x4--13-x4--14-x4-------|-9-x4--11-x4--13-x4--14-x4-------|
D|---------------------------------|---------------------------------|
A|---------------------------------|---------------------------------|
D|---------------------------------|---------------------------------|

"And if you want..."                "You'll always be my heart..."
e|---------------------------------|---------------------------------|
B|---------------------------------|---------------------------------|
G|-6-x4--8-x4--9-x4--11-x4---------|-6-x4--8-x4--9-x4--11-x4---------|
D|---------------------------------|---------------------------------|
A|---------------------------------|---------------------------------|
D|---------------------------------|---------------------------------|

[Instrumental]
e|---------------------------------|---------------------------------|
B|---------------------------------|---------------------------------|
G|---------------------------------|---------------------------------|
D|-7-x16---------------------------|-7-x16---------------------------|
A|---------------------------------|---------------------------------|
D|---------------------------------|---------------------------------|

e|---------------------------------|---------------------------------|
B|---------------------------------|---------------------------------|
G|---------------------------------|---------------------------------|
D|-11-x8-----9-x8-----7-x8---------|-11-x8-----13-x8-----14-x16------|
A|---------------------------------|---------------------------------|
D|---------------------------------|---------------------------------|

e|---------------------------------|---------------------------------|
B|---------------------------------|---------------------------------|
G|-9-x4--11-x4--13-x4--14-x4-------|-9-x4--11-x4--13-x4--14-x4-------|
D|---------------------------------|---------------------------------|
A|---------------------------------|---------------------------------|
D|---------------------------------|---------------------------------|

e|---------------------------------|---------------------------------|
B|---------------------------------|---------------------------------|
G|-6-x4--8-x4--9-x4--11-x4---------|-6-x4--8-x4--9-x4--11-x4---------|
D|---------------------------------|---------------------------------|
A|---------------------------------|---------------------------------|
D|---------------------------------|---------------------------------|

e|---------------------------------|---------------------------------|
B|---------------------------------|---------------------------------|
G|-9-x4--11-x4--13-x4--14-x4-------|-9-x4--11-x4--13-x4--14-x4-------|
D|---------------------------------|---------------------------------|
A|---------------------------------|---------------------------------|
D|---------------------------------|---------------------------------|

e|---------------------------------|---------------------------------|
B|---------------------------------|---------------------------------|
G|-6-x4--8-x4--9-x4--11-x4---------|-6-x4--8-x4--9-x4--11-x4---------|
D|---------------------------------|---------------------------------|
A|---------------------------------|---------------------------------|
D|---------------------------------|---------------------------------|

"I still reside..."                 "I'll make the same..."
e|---------------------------------|---------------------------------|
B|---------------------------------|---------------------------------|
G|-9-x4--11-x4--13-x4--14-x4-------|-9-x4--11-x4--13-x4--14-x4-------|
D|---------------------------------|---------------------------------|
A|---------------------------------|---------------------------------|
D|---------------------------------|---------------------------------|

"I won't escape..."                 "The death inside..."
e|---------------------------------|---------------------------------|
B|---------------------------------|---------------------------------|
G|-6-x4--8-x4--9-x4--11-x4---------|-6-x4--8-x4--9-x4--11-x4---------|
D|---------------------------------|---------------------------------|
A|---------------------------------|---------------------------------|
D|---------------------------------|---------------------------------|

"I still remember..."               "You said that I'm..."
e|---------------------------------|---------------------------------|
B|---------------------------------|---------------------------------|
G|-9-x4--11-x4--13-x4--14-x4-------|-9-x4--11-x4--13-x4--14-x4-------|
D|---------------------------------|---------------------------------|
A|---------------------------------|---------------------------------|
D|---------------------------------|---------------------------------|

"And if you want..."                "You'll always be my heart..."
e|---------------------------------|---------------------------------|
B|---------------------------------|---------------------------------|
G|-6-x4--8-x4--9-x4--11-x4---------|-6-x4--8-x4--9-x4--11-x4---------|
D|---------------------------------|---------------------------------|
A|---------------------------------|---------------------------------|
D|---------------------------------|---------------------------------|
Добавлено: 23.04.2012
Другие материалы по этой песне:
  • Аккорды и текст

Страница создана 23.04.2012
http://primanota.ru/brigade/four-kids-to-a-glokenspiel-chords.htm
Привет, Гость.
Предлагаем пройти революционный курс по гитаре.
Подарок от PrimaNota.Ru, забирай!