PrimaNota.ru - самый крупный в мире бесплатный архив песенных текстов, аккордов, табулатур и нот


Brigade - Assembledissemble - текст песни, бас-таба, видео

Регистрация Запомнить меня
Войти через:  Facebook Google Twitter Vk Yandex Mail.ru

Brigade - Assembledissemble - текст песни, бас-таба, видео

Печатать
Просмотров: 136
Artist: Brigade
Bassist: Naoto Hori
Song: Assemble/Dissemble
Album: Lights
Tabbed By: Lewis [lewis_mason21@hotmail.com]
Tuning: Standard (E,A,D,G)

I'm not sure it's 100% completely right, but I am sure it's not far off if it is a bit out!

Intro: [Come in after the drums play through once]
(Note, those "1"s are actually "11"s!)
G|----------------------------------------|
D|----------------------------------------|
A|-7777777777777777-999999911-99911-9999\-|
E|----------------------------------------| [x2]


Verse One: [Same as the intro...  Plus a little extra bit]
("You beat all hope out in front of me" ... "I won't let go of the memories")
G|----------------------------------------|
D|----------------------------------------|
A|-7777777777777777-999999911-99911-9999\-|
E|----------------------------------------| [x3]

G|----------------------------------------|
D|----------------------------------------|
A|-777777777777-7-7-----------------------|
E|----------------------------------------|

Pre-Chorus:
G|------------------------------------------------------------|
D|------------------------------------------------------------|
A|------------------------------------------------------------|
E|-2-0--0-2-0--0-2-0--0-2-0--0-2-0--0-2-0--0-2-0--0-2-0--0-2~-|

Chorus:
("I waited for the final note" ... "It's yours to hold but it isn't right")
G|---------------------------------------------------------------------|
D|---------------------------------------------------------------------|
A|-7777777777777777-9999999999999999-7777777777777777-999999999999999~-|
E|---------------------------------------------------------------------|

Post-Chorus:
G|------------------------------------------------------------|
D|------------------------------------------------------------|
A|------------------------------------------------------------|
E|-2-0--0-2-0--0-2-0--0-2-0--0-2-0--0-2-0--0-2-0--0-2-0--0-2~-|

Verse Two: [Same as Verse One]
("I'll take my time just to see it through" ... "Give up one more excuse")
G|----------------------------------------|
D|----------------------------------------|
A|-7777777777777777-999999911-99911-9999\-|
E|----------------------------------------| [x3]

G|----------------------------------------|
D|----------------------------------------|
A|-777777777777-7-7-----------------------|
E|----------------------------------------|

Pre-Chorus:
G|------------------------------------------------------------|
D|------------------------------------------------------------|
A|------------------------------------------------------------|
E|-2-0--0-2-0--0-2-0--0-2-0--0-2-0--0-2-0--0-2-0--0-2-0--0-2~-|

Chorus:
("I waited for the final note" ... "It's yours to hold but it isn't right")
G|---------------------------------------------------------------------|
D|---------------------------------------------------------------------|
A|-7777777777777777-9999999999999999-7777777777777777-999999999999999~-|
E|---------------------------------------------------------------------| [x2]

G|-----|
D|-----|
A|-11~-|
E|-----|

Interlude: [Work out how many times to play for yourself, it's not too hard!]
("Get up, stand out, shut up" ...)
G|-----------------------------------------|
D|-----------------------------------------|
A|-----------------------------------------|
E|-2-1-0-2-1-0-2-1-0-2-1-0-2-1-0-2-1-2-1-0-|

Play the interlude all the way until the end of the song, and that's Assemble/Dissemble!

This is my second ever tab, so please comment, rate, etc.
Добавлено: 02.04.2012
Другие материалы по этой песне:
  • Аккорды и текст

Страница создана 02.04.2012
http://primanota.ru/brigade/assembledissemble-chords.htm
Привет, Гость.
Предлагаем пройти революционный курс по гитаре.
Подарок от PrimaNota.Ru, забирай!