PrimaNota.ru - самый крупный в мире бесплатный архив песенных текстов, аккордов, табулатур и нот


Briga - Sei Di Mattina - таба, видео

Регистрация Запомнить меня
Войти через:  Facebook Google Twitter Vk Yandex Mail.ru

Briga - Sei Di Mattina - таба, видео

Печатать
Просмотров: 80
-------------------------------------------------------------------------------
                             Sei di mattina - Briga
-------------------------------------------------------------------------------
Tabbed by: Salvatore Lisita 
E-mail: lisitasalvatore@gmail.com

Tuning:D#GDGAD
Capo 4 tranne 6° corda

 d|--4-----4h5p4------------------------------4--------7-5-4-----5------5-----|
 A|-----5---------5----------0------0------------5-----5-5-5--2--------2------|
 G|------------------------0---------------------------0-0-0----------0-------|
 D|--------0-------------4------2/4----2-0---------7x--0-0-0---------0--------|
 G|--0----------------------------------------0---------------------0---------|
D#|------------------0--------------------------------------------------------|

 d|------------------------4-4-4-2-2-2-0-----------0-2-2-4--------------------|
 A|------------------------5-5-5-4-4-4-4-----0------------5-0-2-4-------------|
 G|-------0-2--------0-2--------------------0------------------------0--------|
 D|-0h2h4------0h2h4---------------------2/4---2-0-----------------0----------|
 G|----------------------0----------------------------------------------------|
D#|--------------------------------------------------------------0------------|

Si ringrazia Giona Liuzzi per la collaborazione!

************************************

| /   slide up
| \   slide down
| h   hammer-on
| p   pull-off
| ~   vibrato
| +   harmonic
| x   Mute note
| b   Bend
| pb  Pre-bend
| br  Bend release
| pbr Pre-bend release
| brb Bend release bend

************************************
Добавлено: 06.12.2015
Другие материалы по этой песне:
  • Аккорды и текст

Страница создана 06.12.2015
http://primanota.ru/briga/sei-di-mattina-chords.htm
Привет, Гость.
Предлагаем пройти революционный курс по гитаре.
Подарок от PrimaNota.Ru, забирай!