PrimaNota.ru - самый крупный в мире бесплатный архив песенных текстов, аккордов, табулатур и нот


Briefs - Knife - таба, бас-таба, видео

Регистрация Запомнить меня
Войти через:  Facebook Google Twitter Vk Yandex Mail.ru

Briefs - Knife - таба, бас-таба, видео

Печатать
Просмотров: 193
The Briefs
Hit After Hit
"Knife" 

Intro:
|---------------------------------------|
|---------------------------------------|
|---------------------------------------|
|-1010------5-5------1212------5-5------|
|-1010------5-5------1212------5-5------|
|-8-8-------3-3------1010------3-3------|

Chorus: 

|-------------------------------------------|
|-------------------------------------------|
|-------------------------------------------|
|-10101010----5555------2222------5555------|
|-10101010----5555------2222------5555------|
|-8-8-8-8-----3333------0000------3333------|

Verse:
|-----------------------------------------------|
|-----------------------------------------------|
|-----------------------------------------------|
|-10101010----5555------12121212------5555------|
|-10101010----5555------12121212------5555------|
|-8-8-8-8-----3333------10101010------3333------|
Добавлено: 15.05.2012
Другие материалы по этой песне:
  • Аккорды и текст

Страница создана 15.05.2012
http://primanota.ru/briefs/knife-chords.htm
Привет, Гость.
Предлагаем пройти революционный курс по гитаре.
Подарок от PrimaNota.Ru, забирай!