PrimaNota.ru - самый крупный в мире бесплатный архив песенных текстов, аккордов, табулатур и нот


Briefs - Ephedrine Blue - текст песни, таба, видео

Регистрация Запомнить меня
Войти через:  Facebook Google Twitter Vk Yandex Mail.ru

Briefs - Ephedrine Blue - текст песни, таба, видео

Печатать
Просмотров: 164
Уроки эстрадного вокала в Санкт-Петербурге
--------------------------------------------------------------
Artist    :  The Briefs 
Song      :  Ephedrine Blue
Album     :  Sex Objects
--------------------------------------------------------------
Tabbed By :  Ricky Thomson
Date      :  18th April 2013
Contact   :  punkalert@gmail.com
--------------------------------------------------------------


Tuning: standard

b = bend


[intro]
e|---------------------------------------------------------|
B|------------6-7--7-7--7-6--------------------------------|
G|--6--6--6-8---------------8--6--6--8-6-----------8b--8b--|
D|---------------------------------------8-6--6-6----------|
A|---------------------------------------------------------|
E|---------------------------------------------------------|


[verse]
e|---------------------------------------------------------|
B|---------------------------------------------------------|
G|--6-6--6-6-6-------------------------------------8b--8b--|
D|--6-6--6-6-6--6-6-6--6-6-6--8-8--8-8-8--9-9-9-9----------|
A|--4-4--4-4-4--6-6-6--6-6-6--8-8--8-8-8--9-9-9-9----------|
E|--------------4-4-4--4-4-4--6-6--6-6-6--7-7-7-7----------|

[chorus]
e|---------------------------------------|
B|---------------------------------------|
G|-------------------11-11-11--11-11-11--|
D|--11-11--11-11-11--11-11-11--11-11-11--|
A|--11-11--11-11-11---9--9--9---9--9--9--|
E|---9--9---9--9--9----------------------|

[bridge]
e|---------------------------------------------------------|
B|---------------------------------------------------------|
G|---------------------------------------------------------|
D|------------3-4--4-4--4-3--------------------------------|
A|--4--4--4-6---------------6--4--4--6-4-----------6b--6b--|
E|---------------------------------------6-4--4-4----------|



Order:
  intro  [x2]
  verse  [x4]
  chorus [x4]
  bridge [x2]
  verse  [x2]
  chorus [x4]
  bridge [x2]
  solo   (haven't tabbed it out yet, sorry!)
  chorus [x4]
Добавлено: 23.09.2013
Другие материалы по этой песне:
  • Аккорды и текст

Страница создана 30.04.2012
http://primanota.ru/briefs/ephedrine-blue-chords.htm
Привет, Гость.
Предлагаем пройти революционный курс по гитаре.
Подарок от PrimaNota.Ru, забирай!