PrimaNota.ru - самый крупный в мире бесплатный архив песенных текстов, аккордов, табулатур и нот


Bridge And Tunnel - Call To The Comptrollers Office - таба, видео

Регистрация Запомнить меня
Войти через:  Facebook Google Twitter Vk Yandex Mail.ru

Bridge And Tunnel - Call To The Comptrollers Office - таба, видео

Печатать
Просмотров: 102
-----------------------------------------------------------------------------
	            CALL TO THE COMPTROLLER'S OFFICE - Bridge and Tunnel
-----------------------------------------------------------------------------
Tabbed by: tobias19
Email: tobias19@skakills.com
Bridge and Tunnel: http://www.myspace.com/bridgeandtunnelmusic

Unless otherwise noted, rhythm guitar on left, lead on right.
It's kinda tough to explain the timing between the two guitar parts. I tried
to line up the lead and rhythm parts as well as possible. Most of the time
they're playing "call and response" with different riffs--both parts are a lot of fun.
Tuning: Drop D

intro/verse
e|-------------------------------------	        e|-----------------7------|
B|--------------15--15--15--15--15--15-	        B|------------------7-----|
G|------------18--18--18--16--16--16---	        G|--(harmonics ->)---7----|
D|-7-77-7-77---------------------------	        D|-7---7-7-7----------7---|
A|-5-55-5-55---------------------------	        A|-5---5h7p5-----------7--|
D|-5-55-5-55---------------------------	        D|-5-7-5-5-5------------7-|

e|--------------------------      e|--------------------------------------|
B|--------------------------      B|--------------------------------------|
G|--------------------------      G|-----------------111214-12-11h12p11---|
D|-7-77-7-77--222222--------      D|-7---7---------12------------------12-|
A|-5-55-5-55--222222--------      A|-5---5h7/9---14-----------------------|
D|-5-55-5-55--222222--------      D|-5-7-5---0----------------------------|

e|--------------------------	       e|---------------------------------|
B|--------------------------	       B|---------------------------------|
G|--------------------------        G|------14-------7-7-7-7h9p7-7-----|
D|-7-77-7-77------454-4-2---	       D|-12/14------4/9-9-9-------9-9\7--|
A|-5-55-5-55---2h5--------5-	       A|---------------------------------|
D|-5-55-5-55----------------	       D|---------------------------------|

e|--------------------------                       e|---------------------|
B|--------------------------                       B|---------------------|
G|--------------------------                       G|---------------------|
D|-7-77-7-77--222222--------                       D|-7---7-------222222--|
A|-5-55-5-55--222222--------                       A|-5---5h7p7---222222--|
D|-5-55-5-55--222222--------                       D|-5-7-5---0---222222--|


Pre Chorus
e|----------------------            e|------------(strum with fingertips)-|
B|----------------------            B|------------------101010101010------|
G|----------------------            G|-9\7---6/7--------111111111111------|
D|----------------------            D|------------0-----9-9-9-9-9-9-------|
A|--5---4--5----5---4---            A|-7\5---4/5--0-----------------------|
D|-7-7-5-5-0---7-7-5-5--            D|-----7------0-----------------------|


Rhythm Chorus (x2)
e|--------------------------------------------------|
B|--------------------------------------------------|
G|-777777999999141414141414777777-77777779999444444-|
D|--------------------------------------------------|
A|-555555777777121212121212555555-55555557777555555-|
D|-000000000000-0-0-0-0-0-0000000-------------------|

Chorus Lead part (same as rhythm chorus until the lead line comes in--you'll know when 
hear it)
e|----------------------------------------------------------------|
B|----------------------------------------------------------------|
G|-------14-12-11-12-11----------------11----14-------------------|
D|----12----------------14-12-11-12-14----14----11h12-11h12p11----|
A|-14----------------------------------------------------------12-|
D|----------------------------------------------------------------|


e|----------------------------------------------------------|
B|----------------------------------------------------------|
G|-------------------------16----------16-------------------|
D|------------------------------------------16--14--12--11--|
A|-14-12-14-12-----17-----------17--------------------------|
D|--------------16----1616---16----1616---16--14--12--11----|

Verse 2

e|----------------------------------------      e|-----------------------|
B|----------------------------------------      B|-----------------------|
G|----------------------------------------      G|-----------------------|
D|-------14--11------14--16-777777--------      D|----------------777777-|
A|-----12--12------12--12---555555--------      A|----------------555555-|
D|-1212--------1212---------555555--------      D|----------------555555-|

e|----------------------------------------      e|-----------------------|
B|----------------------------------------      B|-----------------------|
G|----------------------------------------      G|-----------------------|
D|-------14--11------14--16-777777--------      D|----------7/9---777777-|
A|-----12--12------12--12---555555--------      A|--5-5/7--5------555555-|
D|-1212--------1212---------555555--------      D|-5------5-------555555-|

e|----------------------------------------      e|-----------------------|
B|----------------------------------------      B|-----------------------|
G|--------------------------777777999999--      G|-----------------------|
D|-------14--11------14--16---------------      D|----------7/9---777777-|
A|-----12--12------12--12---555555777777--      A|--5-5/7--5------555555-|
D|-1212--------1212-----------------------      D|-5------5-------555555-|

rhythm
e|---------------------------------------------------------------|
B|---------------------------------------------------------------|
G|--------------------------777777999999111111111111121211111111-|
D|-------14--11------14--16-777777-------------------------------|
A|-----12--12------12--12---5555557777779-9-9-9-9-9-10109-9-9-9--|
D|-1212--------1212----------------------------------------------|

lead (couldn't fit on right because of UG formatting)
e|-----------------------------------|
B|-----------------------------------|
G|-----------------------------------|
D|----------7/9---777777222222222222-|
A|--5-5/7--5------555555222222222222-|
D|-5------5-------555555222222222222-|

CHORUS

Bridge
Rhythm: loop this, first clean, then OD as cresc builds
e|---------------------------------|
B|---------------------------------|
G|---------------------------------|
D|-444555777777-444555121212111111-|
A|-555777999999-555777141414121212-|
D|---------------------------------|

Lead: first, fingerpick this chord as shown, then strum as bridge builds up.
e|---7-----|
B|-----10--|
G|--7----7-|
D|---------|
A|-9--9----|
D|---------|

lead cont.
e|--------------------------------------------------|
B|--------------------------------------------------|
G|-7-7-7-9-9-9-1111111111117-7-7-9-9-9-999999999999-|
D|--------------------------------------------------|
A|-5-5-5-7-7-7-9-9-9-9-9-9-5-5-5-7-7-7-777777777777-|
D|--------------------------------------------------|

lead cont.
e|---------------------------------------------------|
B|--------------------------------------151515141414-|
G|-77777-99999-111111111111777777999999--------------|
D|--------------------------------------121212111111-|
A|-55555-77777-9-9-9-9-9-9-555555777777-777777777777-|
D|---------------------------------------------------|

CHORUS x2
Second time is slightly different, but if you've made it this far, you can easily figure 
out.
Both end on this chord:

e|----|
B|----|
G|-11-|
D|-9--|
A|-9--|
D|-9--|
Добавлено: 08.07.2012
Другие материалы по этой песне:
  • Аккорды и текст

Страница создана 08.07.2012
http://primanota.ru/bridge-and-tunnel/call-to-the-comptrollers-office-chords.htm
Привет, Гость.
Предлагаем пройти революционный курс по гитаре.
Подарок от PrimaNota.Ru, забирай!