PrimaNota.ru - самый крупный в мире бесплатный архив песенных текстов, аккордов, табулатур и нот


Brides Of Destruction - White Horse - бас-таба, видео

Регистрация Запомнить меня
Войти через:  Facebook Google Twitter Vk Yandex Mail.ru

Brides Of Destruction - White Horse - бас-таба, видео

Печатать
Просмотров: 144
Artist:Brides of Destruction
Song:White Horse
Album:Runaway Brides
Bassist:Scott Sorry
Tabber:Dev Fuld

This is an awesome tune. Took me alil while to get like 1 part down, haha.

Key:
x = times a number
* = let it ring

Intro/Chorus
G:------------|
D:------3-2-0*|
A:5*-3*-------|
E:------------|

Verse
G:----|
D:----|
A:5x64|
E:----|

Pre-Chorus
G:---------------------------|---------------|
D:---------------------------|---------------|
A:1-1--1-1-1--1-5-5--5-5-5--5|1--0--1--0--1-0|
E:---------------------------|---------------|

Solo
G:---------------------------|--------------------------------|-----------------------|
D:---------------------------|--------------------------------|-----------------------|
A:1-1--1-1-1--1-5-5--5-5-5---|1--0--1--0--1-0--1--0--1--0--1-0|3-1-3-1-31-3-1-3-1-31-5|
E:---------------------------|--------------------------------|-----------------------|

End
G:--------------------------------|-----------------------------------|
D:--------------------------------|-----------------------------------|
A:1--0--1--0--1-0--1--0--1--0--1-0|3--1--3--1--3-1--3--1--3--1--3-1-5*|
E:--------------------------------|-----------------------------------|

That's it. Some parts of the song are alil confusing so listen to it carefully. All the 
parts are there, all you gotta do is put em' in order. Any questions or comments, e-mail 
me at rocklvson@yahoo.com
Добавлено: 31.03.2012
Другие материалы по этой песне:
  • Аккорды и текст

Страница создана 31.03.2012
http://primanota.ru/brides-of-destruction/white-horse-chords.htm
Привет, Гость.
Предлагаем пройти революционный курс по гитаре.
Подарок от PrimaNota.Ru, забирай!