PrimaNota.ru - самый крупный в мире бесплатный архив песенных текстов, аккордов, табулатур и нот


Brides Of Destruction - Only Get So Far - текст песни, таба, видео

Регистрация Запомнить меня
Войти через:  Facebook Google Twitter Vk Yandex Mail.ru

Brides Of Destruction - Only Get So Far - текст песни, таба, видео

Печатать
Просмотров: 159
Уроки эстрадного вокала в Санкт-Петербурге
|--------------------------------------------------------------------|
|--------------------------------------------------------------------|
|-14b15~b14~-12~--14b15~r14-12-11~---12-14-15-14-12--12-14-12----11~-|
|-------------------------------------------------------------12-----|
|--------------------------------------------------------------------|
|--------------------------------------------------------------------|

|----------------10-12----------14b15-------16b18~~r16~--17b18-15-14-15----15-14-15-------------------|
|----------------------12-14-12-------13~---15--------------------------17----------15-13/12-13-12-10-|
|-------------12--------------------------------------------------------------------------------------|
|-12-10-12-13-----------------------------------------------------------------------------------------|
|-----------------------------------------------------------------------------------------------------|
|-----------------------------------------------------------------------------------------------------|

|----10-----------------------------------------------------------------------------12-14b16~r14-14-14-14-|
|-12----13/12-10b11r10----------------------------------------9-11-9-11-11-12b13r12-----------------------|
|----------------------13-11-13-11-9~--9-9--7-9-10-9-11-12-11---------------------------------------------|
|---------------------------------------------------------------------------------------------------------|
|---------------------------------------------------------------------------------------------------------|
|---------------------------------------------------------------------------------------------------------|

|-14-16-13--13-14----------------------------------------------------------------|
|-----------------15---------------------------------------------------------12~-|
|--------------------14-12/11\12~--14-12-11-12/11-12-11b12r11-9~-12-10-12-13-----|
|--------------------------------------------------------------------------------|
|--------------------------------------------------------------------------------|
|--------------------------------------------------------------------------------|

|-15----------------15----------------15-------16b18~-16b18r16~/15-|
|----13-12-15-13-12----13-12-15-13-12----13-12-15------------------|
|------------------------------------------------------------------|
|------------------------------------------------------------------|
|------------------------------------------------------------------|
|------------------------------------------------------------------|

|-15b17r15-14b16r14-12\14--------------------------------------------------------------|
|-------------------------13--14/13-11-------------------------------------------------|
|--------------------------------------14/12-14/13-11----------------------------------|
|-----------------------------------------------------14/12-12\14-12-10-11/10~~--3\5/3-|
|--------------------------------------------------------------------------------------|
|--------------------------------------------------------------------------------------|

|------------------12----13b15~-15-------------13-15-------------13-15-------------13-15---------|
|---------------10----10-----------14b16r14-12-------14b16r14-12-------14b16r14-12------14b16~~~-|
|-------7-9-11-----------------------------------------------------------------------------------|
|-5-7-9------------------------------------------------------------------------------------------|
|------------------------------------------------------------------------------------------------|
|------------------------------------------------------------------------------------------------|

|---------14\15-17b19/16/15/14------------17\19/17/16-17\19/17/16-----|
|-12\14~-----------------------12\14~--15-------------------------14~-|
|---------------------------------------------------------------------|
|---------------------------------------------------------------------|
|---------------------------------------------------------------------|
|---------------------------------------------------------------------|

|----------------------------15pb17-15pb17-15pb17~~~sd-|
|-12-14\15/14-12----12\14/12---------------------------|
|----------------14------------------------------------|
|------------------------------------------------------|
|------------------------------------------------------|
|------------------------------------------------------|
Добавлено: 03.05.2012
Другие материалы по этой песне:
  • Аккорды и текст

Страница создана 03.05.2012
http://primanota.ru/brides-of-destruction/only-get-so-far-chords.htm
Привет, Гость.
Предлагаем пройти революционный курс по гитаре.
Подарок от PrimaNota.Ru, забирай!