PrimaNota.ru - самый крупный в мире бесплатный архив песенных текстов, аккордов, табулатур и нот


Brides Of Destruction - Never Say Never - бас-таба, видео

Регистрация Запомнить меня
Войти через:  Facebook Google Twitter Vk Yandex Mail.ru

Brides Of Destruction - Never Say Never - бас-таба, видео

Печатать
Просмотров: 109
Artist:Brides of Destruction
Song:Never Say Never
Album:Runaway Brides
Bassist:Scott Sorry
Tabber:Dev Fuld

This is an awesome song by BOD, even though Nikki isnt with em' anymore, they still kick 
some ass.

* = let it ring
x = times a number

Intro
G:-----------|----------|
D:-----------|----------|
A:6x4--------|6x4-----5*|
E:----6x4-1x8|----6x4---|

Slow Verse
G:---------------|--------|
D:---------------|--------|
A:6*--------3-3-5|6*----5*|
E:---6*-1*-------|---6*---|

Heavier Verse
G:----------------------------------------------|
D:----------------------------------------------|
A:--------------------------------1-2-3--3-3-3-1|
E:3-1-2-3-3-1-2-3-3-1-2-3-3-1-2-3---------------|

G:---------------------------------------------|
D:---------------------------------------------|
A:--------------------------------1-2-3*-3-4-5*|
E:3-1-2-3-3-1-2-3-3-1-2-3-3-1-2-3--------------|

Chorus...is the intro

Solo
G:---------|---------|---------|---------------------|-------------------|
D:---------|---------|---------|---------------------|-------------------|
A:---------|3-3-1-2-3|---------|3-3-1-2-3-3-1-2-3-3-1|-------------------|
E:3-3-1-2-3|---------|3-3-1-2-3|---------------------|3-3-1-2-3-3-1-2-3-3|

G:-------------------|-------------------|-------------------|
D:-------------------|-------------------|-------------------|
A:3-3-1-2-3-3-1-2-3-3|-------------------|3-3-1-2-3-3-1-2-3-3|
E:-------------------|3-3-1-2-3-3-1-2-3-3|-------------------|

G:---------------------|---------------------|---------------------|
D:---------------------|---------------------|---------------------|
A:--------------------3|--------------------3|--------------------3|
E:5-5-3-4-5-5-3-4-5-5--|5-5-3-4-5-5-3-4-5-5--|5-5-3-4-5-5-3-4-5-5--|

G:---------------|
D:7-5-7---7---7--|
A:------7---6---5|
E:---------------|

That's it. This is an aweosme tune, its played kinda fast though so try and keep up with 
it. You can figure out the order your-self. Any questions or comments, e-mail me at rocklvson@yahoo.com
Добавлено: 07.04.2012
Другие материалы по этой песне:
  • Аккорды и текст

Страница создана 07.04.2012
http://primanota.ru/brides-of-destruction/never-say-never-chords.htm
Привет, Гость.
Предлагаем пройти революционный курс по гитаре.
Подарок от PrimaNota.Ru, забирай!