PrimaNota.ru - самый крупный в мире бесплатный архив песенных текстов, аккордов, табулатур и нот


Brides Of Destruction - Natural Born Killers - текст песни, бас-таба, видео

Регистрация Запомнить меня
Войти через:  Facebook Google Twitter Vk Yandex Mail.ru

Brides Of Destruction - Natural Born Killers - текст песни, бас-таба, видео

Печатать
Просмотров: 166
Artist:Brides Of Destruction
Song:Natural Born Killers
Album:Here Come the Brides
Bassist:Nikki Sixx
Tabber:Dev Fuld

This is one of my favorite songs by BOD. And this tab should be damn near correct if not 
completely correct.

Key:
x = times a number
* = let it ring

Intro/Verse
G:------------|
D:------------|
A:----7x8-5x16|
E:5x8---------|

Chorus
G:---------------------------|
D:---------------------------|
A:-------3-3--3-2-2--2-5-5--5|
E:5-5--5---------------------|

Pre-solo/solo
G:---------------|---------------------------|
D:---------------|---------------------------|
A:---------------|-------3-3--3-2-2--2-5-5--5|
E:5x4-3x4-2x4-1x4|5-5--5---------------------|

End
G:--|---------------------------|
D:--|---------------------------|
A:7*|---------------------------|
E:--|0-3-5*-5-7-8*-8-7-1*-1-3-0*|

That's it. I freakin guarentee this tab. It's an awesome tune so this'll help you. You 
can figure out the order your-self, it's not that hard. Any questions or comments, e-mail 
me at rocklvson@yahoo.com
Добавлено: 06.04.2012
Другие материалы по этой песне:
  • Аккорды и текст

Страница создана 05.04.2012
http://primanota.ru/brides-of-destruction/natural-born-killers-chords.htm
Привет, Гость.
Предлагаем пройти революционный курс по гитаре.
Подарок от PrimaNota.Ru, забирай!