PrimaNota.ru - самый крупный в мире бесплатный архив песенных текстов, аккордов, табулатур и нот


Bride - You Never Knew Me - таба, видео

Регистрация Запомнить меня
Войти через:  Facebook Google Twitter Vk Yandex Mail.ru

Bride - You Never Knew Me - таба, видео

Печатать
Просмотров: 92
		   B R I D E

You never knew me

from the record: DROP

Lyrics by Dale Thompson
Music by Bride
c. 1995 Bride Music inc./SESAC


Intro:

----------------------------------------------0-------------
----------------------------------------------0-------------
----------------------------------------------0-------------
------------------------------------------------------------
-2--2--2--2--2--2----------2--2--2--3--2--2-----------------
-0--0--0--3--0--0--3-/-5---0--0--0--2--0--0-----------------

Verses:
Bass plays 

E-0--0--0--3--0--0--3-/-5---------------


Cradle me in your wooden arms
Twist your flowers around my head
I cried all the tears I could 
While you slept I bled




Chorus:

I turn to you but you never knew me
I forgive you for the things you do
-----------------------------------------------------------------------------
-----------------------------------------------------------------------------
2--2------2--2---------------------------------------------------------------
2--2------2--2---------------------------------------------------------------
0--0------0--0---------2--2--2--2--2--2---------2--2--2--2--2--2-------------
-------------------5\--0--0--0--3--0--0--3-/-5--0--0--0--3--0--0---5---------



Weight my bones down
Lay your soul....   X8
------------------|------------
------------------|------------
-7----------------|------------
-8----7---5-------|--2---------
-8----7---5-------|--2---------
-6----5---3-------|--0---------


     
Добавлено: 30.08.2013
Вам также может быть интересно:
Другие материалы по этой песне:
  • Аккорды и текст

Страница создана 30.08.2013
http://primanota.ru/bride/you-never-knew-me-chords.htm
Привет, Гость.
Предлагаем пройти революционный курс по гитаре.
Подарок от PrimaNota.Ru, забирай!