PrimaNota.ru - самый крупный в мире бесплатный архив песенных текстов, аккордов, табулатур и нот


Bride - Would You Die For Me - текст песни, таба, видео

Регистрация Запомнить меня
Войти через:  Facebook Google Twitter Vk Yandex Mail.ru

Bride - Would You Die For Me - текст песни, таба, видео

Печатать
Просмотров: 131
		   From ST37182@VM.CC.LATECH.EDU Tue Feb  7 19:05:32 1995

                         "Would You Die For Me"
                                by Bride
                              from the CD
                       'Snakes In The Playground'



Note: Tune guitar down 1/2 step to Eb


                   Introduction (Chorus)
e:---------------||---------------------|------------------|
B:---------------||o--------------------|------------------|
G:---------------||---------------------|------------------|
D:---------------||o--------------------|------------------|
A:---------------||---------------------|------------------|
E:---------5/12\-||-0--3--6--5-3--5--3--|-0--3--6--5-3--5--|



e:---------------------|-------------------||
B:---------------------|------------------o||
G:---------------------|-------------------||
D:---------------------|------------------o||
A:---------------------|-5---5-5--5--7-----||
E:-0--3--6--5-3--5--3--|-3---3-3--3--5-----||


  Verses                                  [1            ]
e:------------|-------------|-------------|-------------|
B:------------|-------------|-------------|-------------|
G:------------|-------------|-------------|-------------|
D:------------|-------------|-------------|-------------|
A:------------|----------2--|-------------|-------------|
E:-0--0--0--0-|-0--0--0--0--|----0--0--0--|-0--0--0--0--|


  [2               ][1,2                                       ]
e:-----------------|---------------------|---------------------|
B:-----------------|---------------------|---------------------|
G:-----------------|---------------------|---------------------|
D:-----------------|---------------------|---------------------|
A:-2-2-2-2-2-2-2-2-|-2--5--7---8--7--5-5-|-2--5--7---8--7--5-5-|
E:-0-0-0-0-0-0-0-0-|-0--3--5---6--5--3-3-|-0--3--5---6--5--3-3-|


  Solo                                X4
||------------------|-----------------||
||o-----------------|----------------o||
||------------------|-----------------||
||o-----------------|----------------o||
||------------------|-----------------||
||-5-3-5--5-3-5--0--|-5-3-5--5-3-5-0--||



This is not exactly right, but it's close enough to play along.
CLA

     
Добавлено: 09.09.2013
Другие материалы по этой песне:
  • Аккорды и текст

Страница создана 28.03.2012
http://primanota.ru/bride/would-you-die-for-me-chords.htm
Привет, Гость.
Предлагаем пройти революционный курс по гитаре.
Подарок от PrimaNota.Ru, забирай!