PrimaNota.ru - самый крупный в мире бесплатный архив песенных текстов, аккордов, табулатур и нот


Bride - Thorns - текст песни, таба, видео

Регистрация Запомнить меня
Войти через:  Facebook Google Twitter Vk Yandex Mail.ru

Bride - Thorns - текст песни, таба, видео

Печатать
Просмотров: 137
		   B R I D E
Thorns
(c) 1994 Dawn Treader Music


Heres another song from the record Scarecrow Messiah.



Tune 1/2 step down...

Intro
-----------------|-------------------|--------------------|--------------------
-----------------|-------------------|--------------------|--------------------
-----------------|-5h7--------7-5----|----5---------------|--------------------
-/7--------------|----------------7--|--5----7------------|--5--------4--------
-----------------|-------------------|--------------------|--------------------
-----------------|-------------------|--------------------|--------------------


-----------------|-------------------|--------------------|--------------------
-----------------|-------------------|--------------------|--------------------
-------------5-7-|-875-875-875-875---|----------------5b--|--------7(8)7-------
-/7--------7-----|-------------------|--7----------5h7----|--7-----------------
-----------------|-------------------|--------------------|--------------------
-----------------|-------------------|--------------------|--------------------

Verse:

chord shapes:
Am Dm sus4   G  F#m
-0--1--3-----3--2--
-1--3--3-----3--2--
-2--2--2-----4--2--
-2--0--0-----5--4--
-0-----------5--4--
-------------3--2--

            Am    Dm  Dsus4 Dm                   Am           G   F#m
She lost her love, tore the picture of the one she thought of
            Am   Dm  Dsus4  Dm                     Am         G   F#5
She's alone again but it's worse than it's ever been



She hurts so bad...
                 x3
--------------------|----------------------------------------
--------------------|----------------------------------------
-5--5------2-2------|-5-5-5-5-5-5-5-5-2-2-2-2-2-2-2-2--------
-5--5------2-2------|-5-5-5-5-5-5-5-5-2-2-2-2-2-2-2-2--------
-3--3--3\2-0-0-0h2--|-3-3-3-3-3-3-3-3-0-0-0-0-0-0-0-0--------
--------------------|----------------------------------------


The black rain falls...
                          x3
-----------------------------|----------------------------
-----------------------------|----------------------------
-----------------------------|-7--7-----------------------
-----------------------------|-7--7-----------------------
-----------------------------|-5--5-----------------------
-5---5-5-8-5---5--8--5--3----|----------------------------



-----------------|-------------------|--------------------|--------------------
-5---------------|-------------------|--------------------|--------------------
-7(9)-----------5|7------------5-7-5-|---5------7(8)7-5---|-5-------7p5--4-----
-----------------|-------------------|-7---7------------7-|--------------------
-----------------|-------------------|--------------------|--------------------
-----------------|-------------------|--------------------|--------------------





mjk@jussi.aol-kurikka.fi

     
Добавлено: 29.10.2013
Другие материалы по этой песне:
  • Аккорды и текст

Страница создана 08.03.2012
http://primanota.ru/bride/thorns-chords.htm
Привет, Гость.
Предлагаем пройти революционный курс по гитаре.
Подарок от PrimaNota.Ru, забирай!