PrimaNota.ru - самый крупный в мире бесплатный архив песенных текстов, аккордов, табулатур и нот


Bride - The Black And White Fallacy - таба, видео

Регистрация Запомнить меня
Войти через:  Facebook Google Twitter Vk Yandex Mail.ru

Bride - The Black And White Fallacy - таба, видео

Печатать
Просмотров: 112
hey this is my new tab for the band the bride..... please comnts!!!
D)----------------------------------------------------------------|
A)----------------------------------------------------------------|
F)----------------------------------------------------------------|
C)--------------0-0--0--0-0                   InTRO!!!   GUITAR 1-|
G)-7-7-10-7-8-8-0-0--0--0-0---------------------------------------|
C)--------------0-0--0--0-0---------------------------------------|


D)----------------------------------------------------------------|
A)----------------------------------------------------------------|
F)----------------------------------------------------------------|
C)------8-5-7-7-0-0--0--0-0                   InTRO!!!   GUITAR 2-|
G)--------------0-0--0--0-0---------------------------------------|
C)--------------0-0--0--0-0---------------------------------------|


VERSE

D)--------------------------------------------------------------|
A)--------------------------------------------------------------|
F)-----------------------------9h10-9h10------------------------|
C)--------------------------------------------------------------|
G)-5555555555-888888888-777777----------------------------------|
C)--------------------------------------------------------------|                       x2

D)--------------------------------------|
A)--------------------------------------|
F)--------------------------------------|
C)-----------------------------12p10p9--|
G)-5555555555-888888888-777777----------|
C)--------------------------------------|

D)--------------------------------------|
A)--------------------------------------|
F)--------------------------------------|
C)-0-0-0~~~--0-0-0~~~-------------------|
G)-0-0-0~~~--0-0-0~~~00000000000000000--|
C)-0-0-0~~~--0-0-0~~~00000000000000000--|
PM . .       . .     .................
Добавлено: 30.06.2012
Другие материалы по этой песне:

Страница создана 21.05.2012
http://primanota.ru/bride/the-black-and-white-fallacy-chords.htm
Привет, Гость.
Предлагаем пройти революционный курс по гитаре.
Подарок от PrimaNota.Ru, забирай!