PrimaNota.ru - самый крупный в мире бесплатный архив песенных текстов, аккордов, табулатур и нот


Bride - Nobodies Hero - таба, видео

Регистрация Запомнить меня
Войти через:  Facebook Google Twitter Vk Yandex Mail.ru

Bride - Nobodies Hero - таба, видео

Печатать
Просмотров: 111
		   B R I D E
Nobodies hero

from the record: DROP


Lyrics by Dale Thompson
Music by Bride
c. 1995 Bride Music inc./SESAC



Intro goes something like this. And that's also the way, how the chords are played in verses and chorus.
First play G/D and then ummm.. Is that Gadd9/D? maybe.. And when there's C, then play first C/E and then 
Cadd9/E.Listen this song to get right rhythm and feel.:)

Intro:  
--3---3--3--3-3--3----3--3--3--3----3---3--3-3--3--3-----------------
--3---3--3--3-3--3----3--3--3--3----3---3--3-3--3--3-----------------
--0-h-2--2--2-2--0----2--2--2--0----0-h-2--2-2--2--0-----------------
--0---0--0--0-0--0----0--0--0--0----0---0--0-0--0--0-----------------
---------------------------------------------------------------------
---------------------------------------------------------------------



G
One slot machine, one stop light town
G
And if Jesus came back tonight
   C
To every story there are two sides
       G
If you walk with the devil he'll tell you lie

G
Never been a lover always been a fighter(I'm nobodies hero)
G
Fought all my life tryin' to find love(I'm nobodies hero)
C
Love of many shall wax cold(I'm nobodies hero)
G
What I do I do alone(I'm nobodies hero)
D
Never believed in the music
    C
The way I believe in you


Interlude?:
-------------------------------
-8-/10-10-10-10--8-8-8-8-------
-7-/-9--9--9--9--7-7-7-7-------
-------------------------------
-------------------------------
-------------------------------


Hm    C         Hm             C
Desires, fears, my doubts, my tears
Hm      C          Hm      C
My joys my loves, to Him above
G        D          C         C7
My anguish my lust the skeletons dust


Solo:

-8p7------------------------|-8p7----10~-------------------|-8p7---------------------------|-------------------------------
-----8----------------------|-----8------------/10---8-----|-----8--------------------8-8--|-8/10-10-10-10-8-8-8-8-10-10-8-
-------7~-------------------|------------------------------|--------7----------------------|-------------------------------
----------------------------|------------------------------|-------------------------------|-------------------------------
----------------------------|------------------------------|-------------------------------|-------------------------------
----------------------------|------------------------------|-------------------------------|-------------------------------


-----------7~---------------|-----------7~-----------------|-----------------------10/12-12|-17\15-15\12-10--7--10-7------
-----8-10--8~---------------|-----8-10--8~-----------------|-----8h10--8~------------------|-17\15-15\13-10--8--10-8------
-7h9------------------------|-7h9--------------------------|-7h9---------------------------|------------------------------
----------------------------|------------------------------|-------------------------------|------------------------------
----------------------------|------------------------------|-------------------------------|------------------------------
----------------------------|------------------------------|-------------------------------|------------------------------






Chords
 G Gadd9   C Cadd9  D
-3--3------0--0-----0--------
-3--3------1--3-----2--------
-0--2------0--0-----3--------
-0--0------2--2-----2--------
-----------------------------
-----------------------------


     
Добавлено: 09.08.2013
Другие материалы по этой песне:
  • Аккорды и текст

Страница создана 09.08.2013
http://primanota.ru/bride/nobodies-hero-chords.htm
Привет, Гость.
Предлагаем пройти революционный курс по гитаре.
Подарок от PrimaNota.Ru, забирай!