PrimaNota.ru - самый крупный в мире бесплатный архив песенных текстов, аккордов, табулатур и нот


Bride - Murder - текст песни, таба, видео

Регистрация Запомнить меня
Войти через:  Facebook Google Twitter Vk Yandex Mail.ru

Bride - Murder - текст песни, таба, видео

Печатать
Просмотров: 120
		   B R I D E
Murder


(c)copyright Dawn Treader Music/SESAC




Riff1
----------------------------------|-----------------------------------------
----------------------------------|-----------------------------------------
----------------------------------|-----------------------------------------
----------------------------------|-----------------------------------------
-2--2-----2------------5----------|--2--2-----2-------------5---7-----------
-0--0-----0----5---7------(7)\----|--0--0-----0-----5---7-------------------


Riff2
----------------------------------|-----------------------------------------
----------------------------------|-----------------------------------------
---------------------------0h2p0--|------------------------------0h2p0------
-2--2--------2----------2--0h2p0--|--2--2---------2----------2---0h2p0------
-2--2--------2----------2---------|--2--2---------2----------2--------------
-0--0--------0----------0---------|--0--0---------0----------0--------------
 x  x        x                       x  x         x          x

Riff1 = Intro + Chorus
Riff2 = Verse


mjk@jussi.aol-kurikka.fi

     
Добавлено: 20.09.2013
Другие материалы по этой песне:
  • Аккорды и текст

Страница создана 18.04.2012
http://primanota.ru/bride/murder-chords.htm
Привет, Гость.
Предлагаем пройти революционный курс по гитаре.
Подарок от PrimaNota.Ru, забирай!