PrimaNota.ru - самый крупный в мире бесплатный архив песенных текстов, аккордов, табулатур и нот


Bride - Mama - таба, видео

Регистрация Запомнить меня
Войти через:  Facebook Google Twitter Vk Yandex Mail.ru

Bride - Mama - таба, видео

Печатать
Просмотров: 94
		   >From papapaul@mail.cei.net (Paul Larison)

Mama

Bride
>From "Drop"

Lyrics by Dale Thompson
Music by Bride
c. 1995 Bride Music inc./SESAC


intro:  

e|------------------------------------------------------------|
B|---------------0-1-----1h3----------------------------------|
G|-0h2--2-2--0h2-----0-2--------------------------------------|  (x2)
D|---------------------------3--3-3-3p0---0-------------------|
A|--------------------------------------3---------------------|
E|------------------------------------------------------------|

verse:
                                                Fill 1
e|-----------------------------------------||-----------------|
B|---------------0-1-----------------------||-----------------|
G|-0h2--2-2--0h2-----0-2-------------------||0h2--2-2--2-0h2--|  (x2)
D|---------------------------3--3-3-3p0---0||-----------------|
A|--------------------------------------3--||-----------------|
E|-----------------------------------------||-----------------|

Fill 2

e|------------------------------------------------------------|
B|------------------------------0-1---------------------------|
G|-0h2--2-2-0-0-0--0h2--2-2-0h2-----0-2--0h2--2-2-2-0h2-2-2--2|
D|-----------4-4-4--------------------------------------------|
A|------------------------------------------------------------|
E|------------------------------------------------------------|

Pre-chorus:

e|-----10------10------10------10---2-2-2--3-3-3--2-2-2--2-2-2|
B|---11--11--11--11--11--11--11--11-3-3-3--3-3-3--3-3-3--3-3-3|
G|-10------10------10------10-------2-2-2--2-2-2--2-2-2--2-2-2|  (x2)
D|----------------------------------0-0-0--0-0-0--0-0-0--0-0-0|
A|------------------------------------------------------------|
E|------------------------------------------------------------|


Chorus:

e|------------------------|
B|---------------0-1------|
G|-0h2--2-2--0h2-----0-2--|
D|------------------------|
A|------------------------|
E|------------------------|

Fill 3

e|-0-2--2-2--2-2--2-2--2-2--0-2--2-2--2-2--2-2--2-2-|
B|-3-3--3-3--3-3--3-3--3-3--3-3--3-3--3-3--3-3--3-3-|
G|-2-2--2-2--2-2--2-2--2-2--2-2--2-2--2-2--2-2--2-2-|  (x2)
D|-0-0--0-0--0-0--0-0--0-0--0-0--0-0--0-0--0-0--0-0-|
A|--------------------------------------------------|
E|--------------------------------------------------|

Intro+ Fill 1 (x2)

Verse

Pre-chorus

Chorus

Fill 3 (x4)

e|-------------------------|
B|-------------------------|
G|-------------------------|  (x8)
D|-------------------------|
A|-3-0--3-0--3-0--3-0--3-0-|
E|-------------------------|

Fill 3  (x12)

e|-2-------2-------|
B|---3-------3-----|
G|-----2-------2---|  (x4)
D|---------------0-|
A|-------0---------|
E|-----------------|

D D

Dsus2 D Dsus4 D  (repeat and fade)

     
Добавлено: 22.10.2013
Другие материалы по этой песне:
  • Аккорды и текст

Страница создана 22.10.2013
http://primanota.ru/bride/mama-chords.htm
Привет, Гость.
Предлагаем пройти революционный курс по гитаре.
Подарок от PrimaNota.Ru, забирай!