PrimaNota.ru - самый крупный в мире бесплатный архив песенных текстов, аккордов, табулатур и нот


Bride - Everybody Knows My Name - текст песни, таба, видео

Регистрация Запомнить меня
Войти через:  Facebook Google Twitter Vk Yandex Mail.ru

Bride - Everybody Knows My Name - текст песни, таба, видео

Печатать
Просмотров: 163
  Song:Everybody Knows My Name
  Band:Bride
  CD:Shotgun Wedding
  Copyright:c&p 1995 Star Song Communication
  Tabbed by:Ed Morones

   INTRO:finger pick & let notes ring throughout....

  e---------------------------------------------------|
  B---------------------------------------------------|
  G------2--------2----------9---9---9-5---5-4/5------|
  D-0h2----2-0h2----2~~~/(7)--7---7-----7-------7~~~~-|
  A----0--------0--------------0---0-----0------------|
  E---------------------------------------------------|

  e---------------------------------------------------|
  B---------------------------------------------------|
  G------2--------2----------9---9---9-5---5-4/5------|
  D-0h2----2-0h2----2~~~/(7)--7---7-----7-------7~~~~-|
  A----0--------0--------------0---0-----0------------|
  E---------------------------------------------------|

  e---------------------------------------------------|
  B---------------------------------------------------|
  G------2--------2----------9---9---9-5---5-4/5------|
  D-0h2----2-0h2----2~~~/(7)--7---7-----7-------7~~~~-|
  A----0--------0--------------0---0-----0------------|
  E---------------------------------------------------|

  e---------------------------------------------------|play these
  B------3--------3-----------------------------------|4 lines 2x's
  G-0h2----2-0h2----2~~~/----9---9---9-5---5-4/5------|
  D----0--------0-------------7---7-----7-------7~~~~-|
  A----------------------------0---0-----0------------|
  E---------------------------------------------------|




  e---------------------------------------------------|
  B---------------------------------------------------|
  G------2--------2----------9---9---9-5---5-4/5------|
  D-0h2----2-0h2----2~~~/(7)--7---7-----7-------7~~~~-|
  A----0--------0--------------0---0-----0------------|
  E---------------------------------------------------|


  e---------------------------------------------------|
  B-------------------------------------------------0-|
  G------2--------2----------9---9---9-5---5-4/5----2-|
  D-0h2----2-0h2----2~~~/(7)--7---7-----7-------7\--2-|
  A----0--------0--------------0---0-----0----------0-|
  E---------------------------------------------------|


  e--------------------------|
  B-------2b4p0h2p0h2p0h2p0--|play 8x's
  G--2-0-2-------------------|
  D--2-0-2-------------------|
  A--------------------------|
  E--------------------------|

   VERSE:
    p.m...............
  e---------------------------|--------------------------|
  B---------------------------|--------------------------|
  G--2-0-2---0-2-0-2-0-2-play-|-2-0-2-0-2-0-2-0-2-0-2-0--|
  D--2-0-2---0-2-0-2-0-2-3x's-|-2-0-2-0-2-0-2-0-2-0-2-0--|
  A---------------------------|--------------------------|
  E---------------------------|--------------------------|

   CHORUS:

  e--------------------------|-------------------------|
  B--3---3---3---3---3---3---|-------------------------|
  G--2---2---2---2---2---2---|-2---2---2---2---2---2---|
  D--0---0---0---0---0---0---|-2---2---2---2---2---2---|
  A----3---3---3---3---3---3-|-0---0---0---0---0---0---|
  E--------------------------|---3---3---3---3---3---3-|



                            |play this 2x's
  e-------------------------|-------------------------|
  B--3---3---3---3---3--3-3-|-------------------------|
  G--2---2---2---2---2--2-2-|-2---2---2---2---2---2---|end
  D--0---0---0---0---0--0-0-|-2---2---2---2---2---2---|chorus
  A----3---3---3---3--------|-0---0---0---0---0---0---|
  E-------------------------|---3---3---3---3---3---3-|

   *play verse and chorus each again one time through


   *ending for 2nd chorus            |3rd verse bass only
  e------------------------------------------------------|
  B------------------------------------------------------|  bass plays this 8x's
  G-2----2---2-----2----2---2---play-|-------------------|
  D-2----2---2-----2----2---2---2x's-|-------------------|
  A-0-3--0---0-----0-3--0---0--------|----3--------------|
  E--------3---3----------3---3------|-5----5--3--5--3---|

   *go to bridge after 3rd verse

   BRIDGE:

  e------------|------------|------------|----------------|
  B--3---3-----|--3---3-----|--3---3-----|--3--3--3---3---|
  G--2---0---2-|--2---0---2-|--2---0---2-|--2--2--2---2---|
  D--0---0---2-|--0---0---2-|--0---0---2-|--0--0--0---0---|
  A----------0-|----------0-|----------0-|----------------|
  E------3-----|------3-----|------3-----|----------------|

  SOLO:here's the rythym guitar for the solo
   |play this 2x's           | play this 2x's
  e--------------------------|-------------------------|
  B--3---3---3---3---3---3---|-------------------------|
  G--2---2---2---2---2---2---|-2---2---2---2---2---2---|
  D--0---0---0---0---0---0---|-2---2---2---2---2---2---|
  A----3---3---3---3---3---3-|-0---0---0---0---0---0---|
  E--------------------------|---3---3---3---3---3---3-|


    then play these two bars
  e-------------------------|-------------------------|
  B--3---3---3---3---3--3-3-|-------------------------|
  G--2---2---2---2---2--2-2-|-2---2---2---2---2---2---|
  D--0---0---0---0---0--0-0-|-2---2---2---2---2---2---|
  A----3---3---3---3--------|-0-3-0---0---0-3-0---0---|
  E-------------------------|-------3---3-------3---3-|



    Last verse:
     P.M.............................................
  e--------------------------------------------------|
  B--------------------------------------------------|
  G--------------------------------------------------|
  D--2---2---2---2---2---2---2---2---2---2---2---2---|
  A--0---0---0---0---0---0---0---0---0---0---0---0---|
  E----3---3---3---3---3---3---3---3---3---3---3---3-|


        P.M...............    P.M......................
  e----------------------------------------------------|
  B----------------------------------------------------|
  G------------------222-------------------------------|
  D--2---2---2---2---222-2---2---2---2---2---2---2---2-|
  A--0---0---0---0---000-0---0---0---0---0---0---0---0-|
  E----3---3---3---3-------3---3---3---3---3---3---3---|


  e----------------------------|
  B----------------------------|
  G--2-0-2-0-2-0-2-0-2-0-2-0---|end of last verse.
  D--2-0-2-0-2-0-2-0-2-0-2-0---|
  A----------------------------|
  E----------------------------|

        Outro Chorus:

  e-------------------------------------|
  B-------------------------------------|Play 5x's
  G--9~~~5~~~--4~~~~--------------------| end on
  D--7~~~7~~~5~~~5~~2--2--2--2--2--2----| A chord
  A-----------------0--0--0--0--0--0----|
  E-------------------3--3--3--3--3--3--|


    Any Q's or com's email Ed at
    5150rocker@sbcglobal.net
Добавлено: 16.04.2012
Другие материалы по этой песне:
  • Аккорды и текст

Страница создана 22.03.2012
http://primanota.ru/bride/everybody-knows-my-name-chords.htm
Привет, Гость.
Предлагаем пройти революционный курс по гитаре.
Подарок от PrimaNota.Ru, забирай!