PrimaNota.ru - самый крупный в мире бесплатный архив песенных текстов, аккордов, табулатур и нот


Brian West - The Spook - бас-таба, видео

Регистрация Запомнить меня
Войти через:  Facebook Google Twitter Vk Yandex Mail.ru

Brian West - The Spook - бас-таба, видео

Печатать
Просмотров: 102
-------------------------------------------------------------------------------
                            The Spook - Brian West
-------------------------------------------------------------------------------
Tabbed by: Sarah Becker


Tuning: Standard (E.A.D.G)

G|---------------------------------------------------------------------------|
D|-3~~~----3~~~----3~~~3~~~3~~~----3~~~----3~~~----3~~~3~~~3~~~--------------|
A|---------------------------------------------------------------------------|
E|---------------------------------------------------------------------------|
   1 + 2 + 3 + 4 + 1 + 2 + 3 + 4 + 1 + 2 + 3 + 4 + 1 + 2 + 3 + 4 +

G|---------------------------------------------------------------------------|
D|---------------------------------------------------------------------------|
A|---------------------------------------------------------------------------|
E|---------------------------------------------------------------------------|
   1 + 2 + 3 + 4 + 1 + 2 + 3 + 4 + 1 + 2 + 3 + 4 + 1 + 2 + 3 + 4 +

G|---------------------------------------------------------------------------|
D|---------------------------------------------------------------------------|
A|---------------------------------------------------------------------------|
E|---------------------------------------------------------------------------|
   1 + 2 + 3 + 4 + 1 + 2 + 3 + 4 + 1 + 2 + 3 + 4 + 1 + 2 + 3 + 4 +

G|---------------------------------------------------------------------------|
D|-1~~~1~~~~~~~1~~~3~~~3~~~3~~~----1~~~1~~~~~~~1~~~3~~~3~~~3~~~--------------|
A|---------------------------------------------------------------------------|
E|---------------------------------------------------------------------------|
   1 + 2 + 3 + 4 + 1 + 2 + 3 + 4 + 1 + 2 + 3 + 4 + 1 + 2 + 3 + 4 +

G|-----------------------------------------0~~~~~~~2~~~~~~~~~~~~~~~----------|
D|-1~~~1~~~~~~~1~~~3~~~3~~~3~~~----3~~~~~~~----------------------------------|
A|---------------------------------------------------------------------------|
E|---------------------------------------------------------------------------|
   1 + 2 + 3 + 4 + 1 + 2 + 3 + 4 + 1 + 2 + 3 + 4 + 1 + 2 + 3 + 4 +

G|---------------------------------------------------------------------------|
D|---------------------------------------------------------------------------|
A|---------------------------------------------------------------------------|
E|---------------------------------------------------------------------------|
   1 + 2 + 3 + 4 + 1 + 2 + 3 + 4 + 1 + 2 + 3 + 4 + 1 + 2 + 3 + 4 +

G|---------------------------------------------------------------------------|
D|---------------------------------3~~~----3~~~------------------------------|
A|-------------------------------------------------1~~~1~~~1~~~--------------|
E|---------------------------------------------------------------------------|
   1 + 2 + 3 + 4 + 1 + 2 + 3 + 4 + 1 + 2 + 3 + 4 + 1 + 2 + 3 + 4 +

G|---------------------------------------------------------------------------|
D|-----3~~~----3~~~----3~~~----3~~~----3~~~----1~~~0~~~~~~~~~~~--------------|
A|---------------------------------------------------------------------------|
E|---------------------------------------------------------------------------|
   1 + 2 + 3 + 4 + 1 + 2 + 3 + 4 + 1 + 2 + 3 + 4 + 1 + 2 + 3 + 4 +

G|---------------------------------------------------------------------------|
D|-----3~~~----3~~~----3~~~----3~~~----3~~~----1~~~----0~~~0~~~--------------|
A|---------------------------------------------------------------------------|
E|---------------------------------------------------------------------------|
   1 + 2 + 3 + 4 + 1 + 2 + 3 + 4 + 1 + 2 + 3 + 4 + 1 + 2 + 3 + 4 +

G|---------------------------------------------------------------------------|
D|---------0~~~~~~~1~~~1~~~3~~~~~~~--------0~~~~~~~1~~~1~~~3~~~~~~~----------|
A|-1~~~~~~~------------------------1~~~~~~~----------------------------------|
E|---------------------------------------------------------------------------|
   1 + 2 + 3 + 4 + 1 + 2 + 3 + 4 + 1 + 2 + 3 + 4 + 1 + 2 + 3 + 4 +

G|---------------------------------------------------------------------------|
D|-----3~~~----3~~~----3~~~----3~~~----3~~~----1~~~----0~~~0~~~--------------|
A|---------------------------------------------------------------------------|
E|---------------------------------------------------------------------------|
   1 + 2 + 3 + 4 + 1 + 2 + 3 + 4 + 1 + 2 + 3 + 4 + 1 + 2 + 3 + 4 +

G|---------------------------------------------------------------------------|
D|-3~~~----3~~~----3~~~3~~~3~~~----3~~~----3~~~----3~~~3~~~3~~~--------------|
A|---------------------------------------------------------------------------|
E|---------------------------------------------------------------------------|
   1 + 2 + 3 + 4 + 1 + 2 + 3 + 4 + 1 + 2 + 3 + 4 + 1 + 2 + 3 + 4 +

G|---------------------------------------------------------------------------|
D|---------------------------------------------------------------------------|
A|---------------------------------------------------------------------------|
E|---------------------------------------------------------------------------|
   1 + 2 + 3 + 4 + 1 + 2 + 3 + 4 + 1 + 2 + 3 + 4 + 1 + 2 + 3 + 4 +

G|---------------------------------------------------------------------------|
D|---------------------------------------------------------------------------|
A|---------------------------------------------------------------------------|
E|---------------------------------------------------------------------------|
   1 + 2 + 3 + 4 + 1 + 2 + 3 + 4 + 1 + 2 + 3 + 4 + 1 + 2 + 3 + 4 +

G|---------------------------------------------------------------------------|
D|-1~~~1~~~~~~~1~~~3~~~3~~~3~~~----1~~~1~~~~~~~1~~~3~~~3~~~3~~~--------------|
A|---------------------------------------------------------------------------|
E|---------------------------------------------------------------------------|
   1 + 2 + 3 + 4 + 1 + 2 + 3 + 4 + 1 + 2 + 3 + 4 + 1 + 2 + 3 + 4 +

G|-----------------------------------------0~~~~~~~2~~~~~~~~~~~~~~~----------|
D|-1~~~1~~~~~~~1~~~3~~~3~~~3~~~----3~~~~~~~----------------------------------|
A|---------------------------------------------------------------------------|
E|---------------------------------------------------------------------------|
   1 + 2 + 3 + 4 + 1 + 2 + 3 + 4 + 1 + 2 + 3 + 4 + 1 + 2 + 3 + 4 +

G|---------------------------------------------------------------------------|
D|---------------------------------------------------------------------------|
A|---------------------------------------------------------------------------|
E|---------------------------------------------------------------------------|
   1 + 2 + 3 + 4 + 1 + 2 + 3 + 4 + 1 + 2 + 3 + 4 + 1 + 2 + 3 + 4 +

G|---------------------------------------------------------------------------|
D|---------------------------------3~~~----3~~~------------------------------|
A|-------------------------------------------------1~~~1~~~1~~~--------------|
E|---------------------------------------------------------------------------|
   1 + 2 + 3 + 4 + 1 + 2 + 3 + 4 + 1 + 2 + 3 + 4 + 1 + 2 + 3 + 4 +



| /  slide up
| \  slide down
| h  hammer-on
| p  pull-off
| ~  vibrato
| +  harmonic
| x  Mute note
===============================================================================
Добавлено: 18.07.2015
Другие материалы по этой песне:
  • Аккорды и текст

Страница создана 18.07.2015
http://primanota.ru/brian-west/spook-chords.htm
Привет, Гость.
Предлагаем пройти революционный курс по гитаре.
Подарок от PrimaNota.Ru, забирай!