PrimaNota.ru - самый крупный в мире бесплатный архив песенных текстов, аккордов, табулатур и нот


Brian Tyler - Rambo 4 Theme - таба, видео

Регистрация Запомнить меня
Войти через:  Facebook Google Twitter Vk Yandex Mail.ru

Brian Tyler - Rambo 4 Theme - таба, видео

Печатать
Просмотров: 392
 
                              "Rambo Theme"

                        Homecoming by Brian Tyler

Hey guys, so theres a lot of people looking for this tab so i though i'd post
it : )  I think it's pretty accurate... 

This is my first tab so coments, complaints and suggestions are always welcome :)

Enjoy!



Tabbed by: Eric B
Email: ericbeaudry22@hotmail.com

Tuning: standard

e|-------------------------------------------------------------------------|
B|--------2--3-------------------------0---------------------2--3----------|
G|----------------4-----------------2-----0--------------------------------|
D|-----4-------------4-----------0-----------0------------4----------------|
A|--2-------------------2--0-----------------------0---2-------------------|
E|----------------------------3-----------------3--------------------------|

e|-------------------------------------------------------------------------|
B|---------------------2--3------------------------0-----------------------|
G|--4-------------------------4-----------------2-----0-----------------4--|
D|-----4--2--0------4-----------4------------0-----------0-----------4-----|
A|---------------2-----------------2--0------------------------0--2------4-|
E|----------------------------------------3-----------------3--------------|

e|-----------------------0-------------------------------------------------|
B|--------3-----------3-----3--------------------2-------------------------|
G|-----2-----------2-----------2--------------4-----2-----------------0--2-|
D|--0--------2--0-----------------2--0-----2-----------2-------------------|
A|--------------------------------------0-----------------2--0-----2-------|
E|--------------------------------------------------------------0-----------|

e|-------------------------------------------------------------------------|
B|--0--------------------2-----------------------2--------------------2--3-|
G|-----0--------------4-----2-----------------3-----3----------------------|
D|--------2--0-----2-----------2-----------4-----------4-----------4-------|
A|--------------0-----------------2--4--1-----------------1-----2----------|
E|-----------------------------------------------------------2-------------|

e|-----------------------------------------------------------------------0-|
B|-----------------------0--------------------------------3-----------3----|
G|--4-----------------2-----0-----------------4--------2-----------2-------|
D|-----4--2--------0-----------0-----------4--------0--------2--0----------|
A|-----------0-----------------------0--2--------4-------------------------|
E|--------------3-----------------3----------------------------------------|

e|-------------------------------------------------------------------------|
B|--3--------------------2-----------------------0--------------------2--3-|
G|-----2--------------4-----2-----------------2-----0----------------------|
D|--------2--0-----2-----------2-----------0-----------0-----------4-------|
A|--------------0-----------------2--0-----------------------0--2----------|
E|--------------------------------------3-----------------3----------------|

e|--------------------------------2--0-------------------------------------|
B|--------------------------------------0-----------------------------0--1-|
G|--4-----------------4--------------------1--------------4----------------|
D|-----4--2--0-----4-----------4--------------2--------4-----------2-------|
A|--------------2--------2--2--------------------2--2--------2--0----------|
E|-------------------------------------------------------------------------|

e|--------------------0-----------------------------0---------------3------|
B|-----------------------3--1--0-----1--------0--1-----1--0------------3---|
G|--2-----------------------------2----------------------------------------|
D|-----2-----------------------------------2--------------------0--2-------|
A|--------0--------3--------------------0--------------------0-------------|
E|-----------0--1----------------------------------------------------------|


e|--3-----3----------------------------------------------------------------|
B|-----3-----3-----------1--3--1-----------------2-------------------------|
G|--------------------3-----------3-----------4-----2----------------------|
D|-----------------0-----------------------2-----------2-------------------|
A|--------------------------------------0-----------------0----------------|
E|--------------3--------------------3-------------------------------------|




Thats it!  Have fun guys and gals





| /  slide up
| \  slide down
| h  hammer-on
| p  pull-off
| ~  vibrato
| +  harmonic
| x  Mute note
===============================================================================
Добавлено: 21.05.2012
Другие материалы по этой песне:
  • Аккорды и текст

Страница создана 21.05.2012
http://primanota.ru/brian-tyler/rambo-4-theme-chords.htm
Привет, Гость.
Предлагаем пройти революционный курс по гитаре.
Подарок от PrimaNota.Ru, забирай!