PrimaNota.ru - самый крупный в мире бесплатный архив песенных текстов, аккордов, табулатур и нот


Brian Tyler - Letty - Original Motion Picture Score - Fast Furious - таба, видео

Регистрация Запомнить меня
Войти через:  Facebook Google Twitter Vk Yandex Mail.ru

Brian Tyler - Letty - Original Motion Picture Score - Fast Furious - таба, видео

Печатать
Просмотров: 251
-------------------------------------------------------------------------------
       Letty - Original Motion Picture Score - Fast & Furious - Brian Tyler
-------------------------------------------------------------------------------
Tabbed by: Dilip
E-mail: dilip.jayananda@gmail.com

The first time I heard this piece, while watching Fast & Furious (the fourth installment of the franchise),
I almost cried because it was so beautiful. If you are wondering when this plays in the movie, check Letty's
funeral scene. Always wanted to learn to play this bit, but barely found any help online.

So I spent some time and figured this out. And thus, my first tab submission. This is fairly simple, and is
only the solo bit of the theme. If you pay close attention to the original, you can improvise on this.

** Pick the numbered fret twice in quick succession if the number is between two lines, e.g, |7|

Tuning: Standard

e|-------------------------------------------------------|
B|-------------------------------------------------------|
G|-0-5-7-7-|7|--7-5-8-7-5-3------------------------------|
D|---------------------------5-7-8--7-8-10--8-10-|12|-5--|
A|-------------------------------------------------------|
E|-------------------------------------------------------|

e|-------------------------------------------------------|
B|-------------------------------------------------------|
G|-0-5-7-7-|7|--7-10-8-7-5-3-----------------------------|
D|----------------------------5-7-8--7-8-10--8-10-|12|-5-|
A|-------------------------------------------------------|
E|-------------------------------------------------------|

e|-------------------------------------------------------|
B|-------------------------------------------------------|
G|-8-8-|8|-8-10-8-7-5-3----------------------------------|
D|-----------------------5-7-8--7-8-10--8-10-|12|-5------|
A|-------------------------------------------------------|
E|-------------------------------------------------------|

Please feel free to email me if you have any feedback!

Cheers!
Добавлено: 22.12.2015
Другие материалы по этой песне:
  • Аккорды и текст

Страница создана 22.12.2015
http://primanota.ru/brian-tyler/letty-original-motion-picture-score-fast-furious-chords.htm
Привет, Гость.
Предлагаем пройти революционный курс по гитаре.
Подарок от PrimaNota.Ru, забирай!