PrimaNota.ru - самый крупный в мире бесплатный архив песенных текстов, аккордов, табулатур и нот


Brian Tyler - Letty - Fast And Furious - таба, видео

Регистрация Запомнить меня
Войти через:  Facebook Google Twitter Vk Yandex Mail.ru

Brian Tyler - Letty - Fast And Furious - таба, видео

Печатать
Просмотров: 95
-------------------------------------------------------------------------------
                             Letty OST-Brian Tyler
-------------------------------------------------------------------------------



e|-------------------------------------------------------|
B|-------------------------------------------------------|
G|-0-5-7-7---7-5-8-7-5-3---------------------------------|
D|---------------------------5-7-8--5-8-10--8-10-12-5----|
A|-------------------------------------------------------|
E|-------------------------------------------------------|

e|-------------------------------------------------------|
B|-------------------------------------------------------|
G|-0-5-7-7---7-10-8-7-5-3-------------------------------|
D|----------------------------5-7-8--5-8-7--8-7-5--------|
A|-------------------------------------------------------|
E|-------------------------------------------------------|

e|-------------------------------------------------------|
B|-------------------------------------------------------|
G|-8--8---10-8-7-5-3-------0-3-8-8-10-8-7----------------|
D|-------------------------------------------------------|
A|-------------------------------------------------------|
E|-------------------------------------------------------|

e|-------------------------------------------------------|
B|-------------------------------------------------------|
G|-------------------------------------------------------|
D|-8----8-5-10-13-----7--8-10-7-----7-8-10-7-------------|
A|-------------------------------------------------------|
E|-------------------------------------------------------|

e|-------------------------------------------------------|
B|-------------------------------------------------------|
G|-0-5-7-7--7-5-8-7-5-3----------------------------------|
D|---------------------------5-7-8--5-8-10--8-10-12-5----|
A|-------------------------------------------------------|
E|-------------------------------------------------------|


Добавлено: 04.06.2016
Другие материалы по этой песне:
  • Аккорды и текст

Страница создана 04.06.2016
http://primanota.ru/brian-tyler/letty-fast-and-furious-chords.htm
Привет, Гость.
Предлагаем пройти революционный курс по гитаре.
Подарок от PrimaNota.Ru, забирай!