PrimaNota.ru - самый крупный в мире бесплатный архив песенных текстов, аккордов, табулатур и нот


Brian Tyler - Assassins Creed Black Flag Main Theme - таба, видео

Регистрация Запомнить меня
Войти через:  Facebook Google Twitter Vk Yandex Mail.ru

Brian Tyler - Assassins Creed Black Flag Main Theme - таба, видео

Печатать
Просмотров: 172
-------------------------------------------------------------------------------
        Assassin's Creed Black Flag Main Theme- Brian Tyler
-------------------------------------------------------------------------------
Tabbed by:ck1207

Tuning:Standard (EADGBe)
Listen to the song for timing.

e|--------------0-----------0-0-------0--------------------------------------|
B|--------0-1-0---3-1-0-1-3-----3-2-3---------0-1-3-0-1---------1-0-1--------|
G|--2-0-2-------------------------------2-0-2-----------2-----0-2-----0------|
D|--------------------------------------------------------0-2-----------3-2-0|
A|--0-----------------------------------0------------------------------------|
E|---------------------------------------------------------------------------|

e|---------------------------------------------------------------------------|
B|--------------------------------0-1-0---1---1---1---1---1---1---1---1------|
G|--------------------------2-0-2-------2---2---2---2---2---2---2---2--------|
D|---------------------------------------------------------------------------|
A|--0-2-3-0-2-3-------------0------------------------------------------------|
E|--------------0-2-3-0-2-3--------------------------------------------------|

e|--12----12----15-14-15-----------------------------------------------0-----|
B|-----10----10----------8-7-3-3/5-------0-1-0-------1-3-0-1-------------3-0-|
G|---------------------------------2-0-2-------2-0-2---------2-2-0-2-0-------|
D|---------------------------------------------------------------------------|
A|---------------------------------0-----------0-------------0-0-------------|
E|---------------------------------------------------------------------------|

e|---------------------------------------------------------------------------|
B|----------------------------------0-1-0--------------0---------------0-----|
G|--2-------------------------2-0-2-------2--2-2-2-0-2---0-2-2-2-2-0-2---0-2-|
D|----4-5-7-4-5-7------------------------------------------------------------|
A|----------------4-5-7-4-5-7-0----------------------------------------------|
E|---------------------------------------------------------------------------|

e|---------------------------------------------------------------------------------|
B|--------------1-0-----0-------------0---------------0-----------------1-0-----0--|
G|--2-2-2-0-2-0-----0-2---2-2-2-2-0-2---0-2-2-2-2-0-2---0-2-2-2-2-0-2-0-----0-2---2|
D|---------------------------------------------------------------------------------|
A|---------------------------------------------------------------------------------|
E|---------------------------------------------------------------------------------|

e|----------------------------------------0----------------------------------------------|
B|--------0-1-0---------1-3-0-1-------------3-0----------------------------------0-1-0---|
G|--2-0-2-------2-2-0-2---------2-2-0-2-0-------2--------------------------2-0-2-------2-|
D|------------------------------------------------4-5-7-4-5-7----------------------------|
A|--0-----------0-0-------------0-0---------------------------4-5-7-4-5-7--0-------------|
E|---------------------------------------------------------------------------------------|

Добавлено: 04.06.2016
Вам также может быть интересно:
Другие материалы по этой песне:
  • Аккорды и текст

Страница создана 04.06.2016
http://primanota.ru/brian-tyler/assassins-creed-black-flag-main-theme-chords.htm
Привет, Гость.
Предлагаем пройти революционный курс по гитаре.
Подарок от PrimaNota.Ru, забирай!