PrimaNota.ru - самый крупный в мире бесплатный архив песенных текстов, аккордов, табулатур и нот


Brian Setzer Orchestra - Blue Christmas - таба, видео

Регистрация Запомнить меня
Войти через:  Facebook Google Twitter Vk Yandex Mail.ru

Brian Setzer Orchestra - Blue Christmas - таба, видео

Печатать
Просмотров: 160
Song:   "Blue Chrismas"
Artist: Brian Setzer Orchestra
Album:  Boogie Woogie Chrismas

Transcribed/Tabbed by Frank van Rens (frank_van_rens@hotmail.com)
Date: 31-dec-2003

intro - begin
E-----5-----6-----7---7---7---7---7---7---5---5---5-|
B---------------------------------------------------|
G--/6----/7----/8---8---8---8---8---8---6---6---6---|
D---------------------------------------------------|
A---------------------------------------------------|
E---------------------------------------------------|

E--4---3---2--0-----0-------------|
B---------------------2-0-----0---|
G-/4---3---2--1-0h1-------0h1-----|
D---------------------------------|
A---------------------------------|
E-------------------------------0-|
intro - end

   E (8x)  B7 (16x) E (12x) E7 (4x) A7 (6x) Ab7   Gb7
E-----------------------------------------------------|
B--5----------------5-------3-------5-------4-----3---|
G--4-------8--------4-------1-------6-------5-----4---|
D--6-------7--------6-------2-------5-------4-----3---|
A--7----------------7---------------------------------|
E----------7------------------------5-------4-----3---|

   F#m7            B7
E----2---2---2---2------------|
B----2---2---2---2------------|
G----2---2---2---2-6-6-6-5-6--|
D----2---2---2---2-7-7-7-6-7--|
A-----------------------------|
E--2---2---2---2---7-7-7-7-7--|

   E (8x)  B7 (16x) E (12x) E7 (4x) A7
E-------------------------------------------------------|
B--5----------------5-------3---------------------------|
G--4-------8--------4-------1---------6---5/(6)-6-6-6---|
D--6-------7--------6-------2---------5---4/(5)-5-5-5---|
A--7----------------7-----------------------------------|
E----------7------------------------5---5-5/(6)-6-6-6---|

   B7 (5x)        E
E-------------------------------|
B-----------9-7-9-7-5-5-5-5-----|
G--8----------------4-4-4-4-----|
D--7--------7-7-7-6-6-6-6-6-----|
A-----------------7-7-7-7-7-----|
E--7--------7-7-7---------------|

solo - begin
E-------------------------------------------------------------------|
B-0-0-5-0-0-7-0-0-8/(9)---------7-9b(10)b(9)---7h9p75-7-5-4-7-------|
G-----------------------------9-------------------------------------|
D---------------------------9---------------------------------------|
A-------------------------------------------------------------------|
E-------------------------------------------------------------------|


whammy
E--------------------------------------5--/5-/5-/5-4---2---0---4-----12~~~-|
B-----7------------------------4--/7------/4-/4-/4-4---2---0~~(0)----12~~~-|
G-6h8----8---6h8p6-4--2-----4--------------------------2---1---------13~~~-|
D--------------------------------------------------------------------12~~~-|
A--------------------------------------------------------------------------|
E--------------------------------------------------------------------------|
        whammy
E-------9~~~--9~~~--9~~~--5--4-------4-5---|
B--9-10-------------------7--5--7--7-------|
G-------11~~--10~~--9~~~--------6--6-6-6---|
D------------------------------------------|
A------------------------------------------|
E------------------------------------------|

E--0-----/4--2p0-/4--2---------------------|
B--------/5--4p0-/5--4---2--0--0--2--3--4--|
G--------/4------/4--4---2--1--1--2--3--4--|
D------------------------------------------|
A------------------------------------------|
E------------------------------------------|

                                 |E
E------------12-15-12-14-12----12|15p12-14p12-15p12-14p12-15b(16)p12-14p12-|
B------12-15----------------15---|-----------------------------------------|
G--/14---------------------------|-----------------------------------------|
D--------------------------------|-----------------------------------------|
A--------------------------------|-----------------------------------------|
E--------------------------------|-----------------------------------------|

                                         | B
E----------------------------------------|-----------------------------|
B--14-12---------------------------------|-----------------------12----|
G--------13-12-13------------------------|----------------11-/13----13-|
D-----------------14-12------------------|----11-12-13-14--------------|
A-----------------------14-13-12-11-12-13|-14--------------------------|
E----------------------------------------|-----------------------------|

E---------------------------------------------------|
B---------------------------------------------------|
G--13h14p13-11-13-11----11--------------------------|
D--------------------13----11-13-9------------------|
A----------------------------------12-11-10-9-------|
E---------------------------------------------11-10-|

E--------------------------------------------------------------------------|
B--------------------------12-15-12----15-12----15-12----15----15----15-15-|
G-----------------------11----------11-------11-------11----11----11-------|
D-------------9-11/(13)----------------------------------------------------|
A--------9-11--------------------------------------------------------------|
E-7-/11--------------------------------------------------------------------|

  E
E-/12--------------------------------------------------------------|
B-----15-12--------------------------------------------------------|
G-----------13-12-11------------------------------------------4-6--|
D--------------------14-11-------------------------------2-/6------|
A--------------------------14-11---------------------2-4-----------|
E--------------------------------14-12-11-10-7-9-0-4---------------|

       |<-------------play this gradually slower-------------------------|
E------------------------------------------------------------------------|
B--5-3-2h3p2p0-2-2h3p2p0-2-2h3p2p0-2-2h3p2p0-2-2h3p2p0-2-2h3p2p0-2---0---|
G------------------------------------------------------------------------|
D------------------------------------------------------------------------|
A------------------------------------------------------------------------|
E------------------------------------------------------------------------|

E--------7-6-5-------------------------------------11-15-|
B----5---------8-5-7-5-----------------------10-13-------|
G-/6---6---------------5-6--------------8-11-------------|
D----------------------------------7-10------------------|
A------------------------------6-9-----------------------|
E--------------------------5-8---------------------------|

E--14-12-11-14-12-11-14-12-11-14-12-11----------14---------12-|
B---------------------------------------14b(16)~~~-14b(16)~~~-|
G-------------------------------------------------------------|
D-------------------------------------------------------------|
A-------------------------------------------------------------|
E-------------------------------------------------------------|

E----------14---------12---------12--------|
B--14b(16)~~~-14b(16)~~~-14b(16)~~~-14p12--|
G------------------------------------------|
D------------------------------------------|
A------------------------------------------|
E------------------------------------------|

E---14b(16)-12-14-12-----------------------------|
B--------------------15-14-----------------------|
G--------------------------12-13-----------------|
D--------------------------------14-12-----------|
A--------------------------------------14-0-14---|
E-------------------------------------------12---|
solo - end
Добавлено: 08.05.2012
Другие материалы по этой песне:
  • Аккорды и текст

Страница создана 08.05.2012
http://primanota.ru/brian-setzer-orchestra/blue-christmas-chords.htm
Привет, Гость.
Предлагаем пройти революционный курс по гитаре.
Подарок от PrimaNota.Ru, забирай!