PrimaNota.ru - самый крупный в мире бесплатный архив песенных текстов, аккордов, табулатур и нот


Brian Ray - Going Down Swinging - таба, видео

Регистрация Запомнить меня
Войти через:  Facebook Google Twitter Vk Yandex Mail.ru

Brian Ray - Going Down Swinging - таба, видео

Печатать
Просмотров: 131
Going Down Swinging
By Brian Ray


I hope this is right. Please tell me what you think of the tab, such as any problems or
If you are a Rusty Anderson fan, check out my 2 Hurt Myself tabs (if you are looking at
solo, please note the last 3 notes are incorrect :( SRY!) Note that this song is tuned 
half-step down.Link: http://www.brian-ray.com/

Verse:

Eb-------------------------------------------------------------------|
Bb-------------------------------------------------------------------|
Gb-------------------------------------------------------------------|
Db-------------------------------------------------------------------|
Ab-------------------------------------------------------------------|
Eb-0-3sb-0-5sb-3sb-0---0-3sb-0----0-3sb-0----0-3sb-0-5sb-3sb-0-------|


Eb----------------------------------------------------| x9
Bb----------------------------------------------------|
Gb----------------------------------------------------|
Db----------------------------------------------------|
Ab----------------------------------------------------|
Eb-0-3sb-0----0-3sb-0----0-3sb-0-5sb-3sb-0------------|
If we're goin' to hell we don't need to pack
got a one way ticket cuz we ain't comin' back
like Nancy and Sid, Courtney and Curt
they say wherever we go someone's gonna get hurt
I don't need a gypsy or my palm read to see
that's my girl cuz she's bad like me
ya got stuff on your mind? Ya got somethin' to say?

Eb-------------------------------|
Bb-------------------------------|
Gb-------------------------------|
Db-------------------------------|
Ab-------------------------------|
Eb-0-3sb-0----0-3sb-0-5b*-0------|

Gotta get on this [or get out of our way, yeah]

Chorus:

Eb---------------|-----------------|---------------|-----------------|
Bb-9-9-9-9-9-9-9-|-7-7-7-7-7-7-7-7-|-9-9-9-9-9-9-9-|-7-7-7-7-7-7-7-7-|
Gb-9-9-9-9-9-9-9-|-7-7-7-7-7-7-7-7-|-9-9-9-9-9-9-9-|-7-7-7-7-7-7-7-7-|
Db-9-9-9-9-9-9-9-|-7-7-7-7-7-7-7-7-|-9-9-9-9-9-9-9-|-7-7-7-7-7-7-7-7-|
Ab-7-7-7-7-7-7-7-|-5-5-5-5-5-5-5-5-|-7-7-7-7-7-7-7-|-5-5-5-5-5-5-5-5-|
Eb---------------|-----------------|---------------|-----------------|

Momma said from the start, "they're no good" she cried while the church bells were ringin'

Eb---------------|-----------------|---------------|--------------------|
Bb-9-9-9-9-9-9-9-|-7-7-7-7-7-7-7-7-|-9-9-9-9-9-9-9-|--------------------|
Gb-9-9-9-9-9-9-9-|-7-7-7-7-7-7-7-7-|-9-9-9-9-9-9-9-|-2------------------|
Db-9-9-9-9-9-9-9-|-7-7-7-7-7-7-7-7-|-9-9-9-9-9-9-9-|-2------------------|
Ab-7-7-7-7-7-7-7-|-5-5-5-5-5-5-5-5-|-7-7-7-7-7-7-7-|-0------------------|
Eb---------------|-----------------|---------------|-3------------------|

we jumped the tracks, no turnin' back if we're going down, we're goin' down swingin'.

More may be coming later…
Добавлено: 22.06.2012
Другие материалы по этой песне:
  • Аккорды и текст

Страница создана 22.06.2012
http://primanota.ru/brian-ray/going-down-swinging-chords.htm
Привет, Гость.
Предлагаем пройти революционный курс по гитаре.
Подарок от PrimaNota.Ru, забирай!