PrimaNota.ru - самый крупный в мире бесплатный архив песенных текстов, аккордов, табулатур и нот


Brian Melo - Anywhere But Here - таба, видео

Регистрация Запомнить меня
Войти через:  Facebook Google Twitter Vk Yandex Mail.ru

Brian Melo - Anywhere But Here - таба, видео

Печатать
Просмотров: 103
-----------------------------------------------------------------------------
                             ANYWHERE BUT HERE - Brian Melo
-----------------------------------------------------------------------------
Tabbed by:Joseph Drysdale
E-mail:josephdrysdale360@hotmail.com
Tuning: Standard

=============================================================================
I know that everyone gets sick of these little comments on the top of each
 tab, but I'd like to say that this is my first tab. Please leave comments
 below. I noticed that this song hasnt been tabbed yet on this site and that
 sucks because its really good. Give the song a listen for the strumming
 pattern, which is really easy to figure out. For beginner guitarists, Dsus2
 is just a D with an open 1st (skinniest) string. Enjoy! :)
=============================================================================

Intro:

D  Dsus2 G G
D  Dsus2 G G

e|------------------------------------------------|
B|-7~~~~~~--5~~~~~--8-7-5---7~~~~~--5~~~~~~-------|
G|-------------------------------------------7~~~~|
D|------------------------------------------------|
A|------------------------------------------------|
E|------------------------------------------------|

(Verse 1)
D                       Dsus2
Drew a line across the moon
         G
Threw a wave over the sea
        D
Found a place in the sky
      Dsus2           G
And I am working on believing
         D                  Dsus2
And the door's always closed
        G
I wanna leave but I never go
        Bm           A           G
And I'm dreaming I'm leaving home
                Bm                 A           G
But there's no leaving when you're already gone

Electric Guitar:

e|-------------------------|
B|-------------------------|
G|-------------------------|
D|-5-5-5-5-5-5-5-5-5-5-5-5-|
A|-5-5-5-5-5-5-5-5-5-5-5-5-|
E|-3-3-3-3-3-3-3-3-3-3-3-3-|


(Chorus)

e|-------------------------------------|
B|-------------------------------------|
G|-------------------------------------|
D|-2--2--7-7-55555555555555555555------|  x2
A|-2--2--7-7-55555555555555555555------|
E|-0--0--5-5-33333333333333333333------|
        D         A          G
I wanna run but I don't know where
        D         A          G
I wanna fly but I don't know how

e|-------------------------------|
B|-------------------------------|
G|-55555555-33333333-------------|
D|-55555555-33333333---66666666--|
A|-33333333-11111111---66666666--|
E|---------------------44444444--|
     Bm                     A                 G
I'm out on the edge and the future is finally there
                      D  Dsus2  G
It's anywhere but here
                      D  Dsus2  G
It's anywhere but here

e|----------------------------------------------|
B|-7---7~~~---5---5~~~---8---8~~~---7---7-5---5-|
G|---7----------7----------7----------7-----7---|
D|----------------------------------------------|   x2
A|----------------------------------------------|
E|----------------------------------------------|

(Verse 2)
         D    Dsus2
Hold the line
                 G
Stay awake in the water
                      D      
Stay awake and you'll find
Dsus2                     G
  That the coasts are all clear
                         D        Dsus2
And the stones have been skipped
                  G
And the ashes are scattered
            Bm    A      G
And they'll never make a sign
              Bm      A     G
Cause we're a million miles away

e|-------------------------|
B|-------------------------|
G|-------------------------|
D|-5-5-5-5-5-5-5-5-5-5-5-5-|
A|-5-5-5-5-5-5-5-5-5-5-5-5-|
E|-3-3-3-3-3-3-3-3-3-3-3-3-|


(Chorus)

e|-------------------------------------|
B|-------------------------------------|
G|-------------------------------------|
D|-2--2--7-7-55555555555555555555------| x2
A|-2--2--7-7-55555555555555555555------|
E|-0--0--5-5-33333333333333333333------|
  
        D         A          G
I wanna run but I don't know where
        D         A         G
I wanna fly but I don't know how

e|---------------------------------------|
B|---------------------------------------|
G|-55555555-33333333---------------------|
D|-55555555-33333333---6666666666666666--|
A|-33333333-11111111---6666666666666666--|
E|---------------------4444444444444444--|

     Bm                     A                 G
I'm out on the edge and the future is finally there
                    
It's anywhere but here


Bridge:
A
Let them say I left too soon
Bm                G
I've got nothing left to lose
A
Hold the captives from the moon
G
And lay me under.

   Bm           Bsus2sus4
e|---------------------------------------------|
B|------3-----------2----------3---------3-----|
G|----4---4-------4---4------0---0-----0---0---|
D|----------4-----------4----------0---------0-| x2
A|--2-----------2----------2---------2---------|
E|---------------------------------------------|

Who ever said it was easy?

Who ever said it was easy?

   G                                 Bm
e|----------------------------------------------------|
B|----------------------------------------------------|
G|-6666666666666666-7777777777777777-9999999999999999-|
D|-6666666666666666-7777777777777777-9999999999999999-|
A|-4444444444444444-5555555555555555-7777777777777777-|
E|----------------------------------------------------|
                    "Easy?"  

e|--------------------------------------------------|
B|--------------------------------------------------|
G|--------------------------------------------------|
D|-11-11-11-11-11-11-11-11-11-11-11-11-11-11-11-11--| x3
A|--9--9--9--9--9--9--9--9--9--9--9--9--9--9--9--9--|
E|--------------------------------------------------|



Bm
I wanna run
     G
I wanna fly



(Chorus)

e|-------------------------------------|
B|-------------------------------------|
G|-------------------------------------|
D|-2--2--7-7-55555555555555555555------| x4
A|-2--2--7-7-55555555555555555555------|
E|-0--0--5-5-33333333333333333333------|
  
        D         A          G
I wanna run but I don't know where
        D         A         G
I wanna fly but I don't know how
        D         A          G
I wanna run but I don't know where
        D         A         G
I wanna fly but I don't know how

e|---------------------------------------|
B|---------------------------------------|
G|-55555555-33333333---------------------|
D|-55555555-33333333---6666666666666666--|
A|-33333333-11111111---6666666666666666--|
E|---------------------4444444444444444--|

     Bm                     A                 G
I'm out on the edge and the future is finally there
                    
It's anywhere but here


END

************************************

| /   slide up
| \   slide down
| H   hammer-on
| p   pull-off
| ~   vibrato
| +   harmonic
| x   Mute note
| B   Bend
| pb  Pre-bend
| br  Bend release
| pbr Pre-bend release
| brb Bend release bend

************************************
Добавлено: 24.10.2013
Вам также может быть интересно:
Другие материалы по этой песне:
  • Аккорды и текст

Страница создана 24.10.2013
http://primanota.ru/brian-melo/anywhere-but-here-chords.htm
Привет, Гость.
Предлагаем пройти революционный курс по гитаре.
Подарок от PrimaNota.Ru, забирай!