PrimaNota.ru - самый крупный в мире бесплатный архив песенных текстов, аккордов, табулатур и нот


Brian Mcknight - Win - аккорды и текст, видео

Регистрация Запомнить меня
Войти через:  Facebook Google Twitter Vk Yandex Mail.ru

Brian Mcknight - Win - аккорды и текст, видео

Печатать
Просмотров: 180
Уроки эстрадного вокала в Санкт-Петербурге
Win
Brian Mcknight
/--- Thanks to my brother Joshua Baldovino Bernardo for letting me ---/
/--- learn this song. This is a very inspiring from Brian Mcknight ---/

WIN
by: BRIAN MCKNIGHT

Intro:              Bb/F                                          F
------11------13--------11------13------11------13--------11------------|
--15------15--------15------15------15------15--------15------15--13----|
------------------------------------------------------------------------|
------------------------------------------------------------------------|
------------------------------------------------------------------------|
------------------------------------------------------------------------|

              F                                 F                 Gm
--------------11----------------11--------------11-----------------------|
--15--13--15--------15--13--15------15--13--15--------15--13--15--11-----|
-------------------------------------------------------------------------|
-------------------------------------------------------------------------|
-------------------------------------------------------------------------|
-------------------------------------------------------------------------|

            F                 Bb
--------------------------------------|
--15----13--15--------11--10--11------|
--------------------------------------|
--------------------------------------|
--------------------------------------|
--------------------------------------|

Verse:
Eb   F/A    Bb
Dark is the night
Cm                 Eb/F
I can weather the storm
Eb    F/A  Bb
Never say die
    Cm                   Eb/F
I've been down this road before
           Eb    Eb/F
I'll never quit
               Gm    F/A-Bb/F
I'll never lay down, mmm
        Ab                                  Eb/F
See I promised myself that I'd never let me down


Chorus:
                Bb
I'll never give up
           Gm
Never give in
            Eb/C
Never let a ray of doubt slip in
         F/D
And if I fall
           Gm
I'll never fail
              Cm         Eb/F
I'll just get up and try again
            Bb
Never lose hope
           Gm
Never lose faith
         Eb/C    Eb     F/A
There's much too much at stake
  D     Gm    F/A     Gm/E
Upon myself I must depend
         Eb                  Eb/C
I'm not looking for place or show
          (Bb) Gm/C when going to bridge
I'm gonna win

Repeat Verse and Chorus

Bridge:
Bbm/C                   Dm-Bb
When it's all said and done
             Eb                     Dm-Gm
My once in a lifetime will be back again
          Cm
Now is the time
    F/Bb      Bb/F
To take a stand
 /Ab        Abm
Here is my chance
           E/F#     (Bb-C)
That's why I'll

Repeat Chorus change key from Bb key to C

Repeat Chorus change key from C key to D
Добавлено: 14.06.2012
Другие материалы по этой песне:
  • Аккорды и текст

Страница создана 01.04.2012
http://primanota.ru/brian-mcknight/win-chords.htm
Привет, Гость.
Предлагаем пройти революционный курс по гитаре.
Подарок от PrimaNota.Ru, забирай!