PrimaNota.ru - самый крупный в мире бесплатный архив песенных текстов, аккордов, табулатур и нот


Brian Kahanek - Gemini - таба, видео

Регистрация Запомнить меня
Войти через:  Facebook Google Twitter Vk Yandex Mail.ru

Brian Kahanek - Gemini - таба, видео

Печатать
Просмотров: 147
Song: Gemini
Artist: Brian Kahanek
Album: Real Life

http://www.briankahanek.com/


great song featured on guitar hero 2

both guitars in standard tuning

key:

/= slide in from below
h= hammer on
p= pull off


enjoy!


INTRO:

Guitar 1
e-----------------------------------------------------------------------------------------------|
B-----------------------------------------------------------------------------------------------|
G------------------9---------7---------------7--------------------------------------------------|
D----------/9---9----9---7---7------7--------7----7--7--7-7-7-8--9---9--------------9-----------|
A-----7-9--/11--11---11--9---7h9----7---7-7h9-----5--5--5-5-5-6--7-------7-7---9h11-------------|
E--/9-----------------------------9-----------------------------------7h9---9-------------------|

Guitar 2
e-----------------------------------------------------------------------------------------------|
B-----------------------------------------------------------------------------------------------|
G-----------------------------------------------------------------------------------------------|
D-----------------------------------------------------------------------------------------------|
A-----------------------------------------------------------------------------------------------|
E-----------------------------------------------------------------------------------------------|



Guitar 1
e------------------------------------------------------------------------------------------------|
B------------------------------------------------------------------------------------------------|
G--------------------9-----------7------------------7--------------------------------------------|
D---------/9---9-------9--7------7-------7----------7--7-----7---7-7-7-8-----9--9-------------9--|
A---------/11--11------11-9------7h9-----7-----7-7h9---5-----5---5-5-5-6-----7------7-7---9h11---|
E--------------------------------------9-----------------------------------------7h9---9---------|


Guitar 2
e------------------------------------------------------------------------------------------------|
B---------/12--12---12-12-10-----9h10-----9------------9h10p9----9-------------------------------|
G------9--/13--13---13-13-11-----9h11-----9---------9--9h11p9----9-9---------9--------9----------|
D--9h11-----------------------11-------11-------9h11----------11---9h11p9----9---9h11-9----------|
A-------------------------------------------------------------------------12---------------------|
E------------------------------------------------------------------------------------------------|




Guitar 1
e------------------------------------------------------------------------------------------------|
B------------------------------------------------------------------------------------------------|
G-------------------9-----------7------------------7---------------------------------------------|
D--------/9---9-------9--7------7-------7----------7--7-----7---7-7-7-8-----9--------------------|
A--------/11--11------11-9------7h9-----7-----7-7h9---5-----5---5-5-5-6-----7--------------------|
E-------------------------------------9----------------------------------------------------------|

Guitar 2
e------------------------------------------------------------------------------------------------|
B--------/12--12---12-12-10-9--/12----9-10-------------------------------------------------------|
G-----9--/13--13---13-13-11-9--/13----9-11----------9------14---13----11----9--------------------|
D-9h11------------------------------------------9h11---/11---/9----/7----/6----------------------|
A------------------------------------------------------------------------------------------------|
E------------------------------------------------------------------------------------------------|
Добавлено: 11.03.2012
Другие материалы по этой песне:

Страница создана 11.03.2012
http://primanota.ru/brian-kahanek/gemini-chords.htm
Привет, Гость.
Предлагаем пройти революционный курс по гитаре.
Подарок от PrimaNota.Ru, забирай!