PrimaNota.ru - самый крупный в мире бесплатный архив песенных текстов, аккордов, табулатур и нот


Brian Jonestown Massacre - Who - аккорды и текст, видео

Регистрация Запомнить меня
Войти через:  Facebook Google Twitter Vk Yandex Mail.ru

Brian Jonestown Massacre - Who - аккорды и текст, видео

Печатать
Просмотров: 150
Авторы: Anton Newcombe

Who
Brian Jonestown Massacre
WHO?

The suspended chords are just suggestions to play along with the cd, but they're in the song.

CHORDS USED
B (2-2-4-4-4-2)-----|
G (3-2-0-0-0-3)-----|
D (x-x-0-3-2-3)-----|
A (0-0-2-2-2-0)-----|
Asus4 (0-0-2-2-3-0)-|
E (0-2-2-1-0-0)-----|
Esus4 (0-2-2-2-0-0)-|

Intro thing:
e-----------------------|
B-----------------------|
G-----9h11^-11^--9------|
D-9-9-------------------|
A-----------------------|
E-----------------------|


B
Who?
B
Who?
B
Who?
B
Who?

G D A Asus4 E Esus4 E

G D A Asus4 E Esus4 E

B
Who?
B
Who?
B
Who?
B
Who?
       G           D             A
I see yellow I see orange I see green
Asus4  E   Esus4 E
Icy    blue
       G           D             A
I see every color that has ever been
 Asus4    E  Esus4 E
Inside of you
        G             D              A
If it's boring just ignore me don't bore me
Asus4    E  Esus4 E
Who are you

Solo:
h= hammer on   p=pull off   /=slide
e----------------------------------------------------------------------|
B----------------------------------------------------------------------|
G-9-11-----------------------------------------------------------------|
D------9---------------------------------------------------------------|
A--------12-12h14-12-12-12h14-12-12-12h14-12-12-12-11-11h12-11-7-7-7-7-|
E----------------------------------------------------------------------|

e-----------------------------------10p9-9h10p9-9h10p9-9----------------|
B-----------------------10----12-10----------------------12-12-12-12-10-|
G--------------------11----11-------------------------------------------|
A-7/11-11/12-12/14------------------------------------------------------|
E-----------------------------------------------------------------------|

e-------------------------------------------------------------------------------|
B-10-10-10-12-10h12-10h12---10h12-10-12-10--------------------------------------|
G-----------------------------------------9-11----------------------------------|
D---------------------------------------------9---------------------------------|
A-----------------------------------------------12-12-12h14-12-11-11h12-11-11/7-|
E-------------------------------------------------------------------------------|
Добавлено: 21.04.2012
Другие материалы по этой песне:
  • Аккорды и текст

Страница создана 21.04.2012
http://primanota.ru/brian-jonestown-massacre/who-chords.htm
Привет, Гость.
Предлагаем пройти революционный курс по гитаре.
Подарок от PrimaNota.Ru, забирай!