PrimaNota.ru - самый крупный в мире бесплатный архив песенных текстов, аккордов, табулатур и нот


Brian Jonestown Massacre - Swallowtail - таба, видео

Регистрация Запомнить меня
Войти через:  Facebook Google Twitter Vk Yandex Mail.ru

Brian Jonestown Massacre - Swallowtail - таба, видео

Печатать
Просмотров: 179
SWALLOWTAIL

CHORDS USED:
Em: (0-2-2-0-0-0) or (0-7-5-7-0-0)--|
G: (3-2-0-0-0-3) or (7-5-0-7-0-0)---|
D: (x-x-0-2-3-2) or (10-9-0-0-10-0)-|
C: (0-3-2-0-1-0) or (8-7-0-0-8-0)---|
A: (0-0-2-2-2-0)--------------------|

Intro:
  Em     G         D        C
e--------------------------------|
G--------------------------------|
B-----7------7--------0-0--------|
D--5-------------------0-0-------|  x2
A-7-7-----5---------9-------7----|
E--------7-7-------10-------8----|

  Em          G         D       C
e-----------------------------------------|
G-----------------------7-7-7-7-8-8-8-8-8-|
B-/9-9-9-9/11-7-7-7-7h9-------------------|
D-----------------------------------------|
A-----------------------------------------|
E-----------------------------------------|

  Em          G         D       G
e-----------------------------------------------|
G-8p7-------------------7-7-7-7-8-8-10-10-12-12-|
B-----9-9-9/11-7-7-7-7h9------------------------|
D-----------------------------------------------|
A-----------------------------------------------|
E-----------------------------------------------|


Em               G
Cant you see its hard for me
   D                C
To send you on your way
          Em                G
When I've heard so much of "I give ups"
   D              C
In every word you say
    Em            G
But we make love together
     D                C
And nothing takes its place
     Em           G
Not kicking in my door tonight
    D                C
And screaming in my face

  C?           A Asus
e-0-0-0-0------0-0-0-0------------------------|
G-3-3-0-0------2-2-2-2------------------------|
B-0-0-0-0------2-2-0-0-x2---------------------|
D-2-2-2-2-x2---2-2-2-2------------------------|  x2
A-3-3-3-3------0-0-0-0------------------------|
E-0-0-0-0-------------------------------------|

Solo:
  Em          G         D       C
e-----------------------------------------|
G-----------------------7-7-7-7-8-8-8-8-8-|
B-/9-9-9-9/11-7-7-7-7h9-------------------|
D-----------------------------------------|
A-----------------------------------------|
E-----------------------------------------|

  Em          G         D       G
e-----------------------------------------------|
G-8p7-------------------7-7-7-7-----------------|
B-----9-9-9/11-7-7-7-7h9--------9-9-------------|
D-----------------------------------------------|
A-----------------------------------------------|
E-----------------------------------------------|

  Em        G         D             C
e-----------------------------------------|
G-----------------------------------8-8---|
B-9p7-----7-----------9/11-11-11-11-------|
D-----9-9---7-9-9-9-----------------------|
A-----------------------------------------|
E-----------------------------------------|

Etc.

Milestones are coming! CN
Добавлено: 20.06.2012
Другие материалы по этой песне:
  • Аккорды и текст

Страница создана 20.06.2012
http://primanota.ru/brian-jonestown-massacre/swallowtail-chords.htm
Привет, Гость.
Предлагаем пройти революционный курс по гитаре.
Подарок от PrimaNota.Ru, забирай!