PrimaNota.ru - самый крупный в мире бесплатный архив песенных текстов, аккордов, табулатур и нот


Brian Jonestown Massacre - Reconstruction - таба, видео

Регистрация Запомнить меня
Войти через:  Facebook Google Twitter Vk Yandex Mail.ru

Brian Jonestown Massacre - Reconstruction - таба, видео

Печатать
Просмотров: 158
-------------------------------------------------------------------------------
                             Reconstruction - Brian Jonestown Massacre
-------------------------------------------------------------------------------
Tabbed by: strokes96


Tuning: EADGBe

Chords: Em G

INTRO:

e|-----------------------------------------------------------------------------|
B|-----------------------------------------------------------------------------|
G|-----------------------------------------------------------------------------|
D|-----------------------------------------------------------------------------|
A|7-----7-5-----2-----2-2------0--2--------------------------------------------|
E|------------------------3----------------------------------------------------|

e|---------------------------------------------------------------------------|
B|---------------------------------------------------------------------------|
G|---------------------------------------------------------------------------|
D|---------------------------------------------------------------------------|
A|7-----7-5-----2-----2-2------0---------------------------------------------|
E|------------------------3-------3------------------------------------------|

CHORUS:

e|---------------------------------------------------------------------------|
B|---------------------------------------------------------------------------|
G|---------------------------------------------------------------------------|
D|---------------------------------------------------------------------------|
A|7-----7-5-----2-----2-2------0---------------------------------------------|
E|------------------------3-------3------------------------------------------|


************************************

| /   slide up
| \   slide down
| h   hammer-on
| p   pull-off
| ~   vibrato
| +   harmonic
| x   Mute note
| b   Bend
| pb  Pre-bend
| br  Bend release
| pbr Pre-bend release
| brb Bend release bend

************************************
Добавлено: 13.07.2015
Другие материалы по этой песне:
  • Аккорды и текст

Страница создана 13.07.2015
http://primanota.ru/brian-jonestown-massacre/reconstruction-chords.htm
Привет, Гость.
Предлагаем пройти революционный курс по гитаре.
Подарок от PrimaNota.Ru, забирай!