PrimaNota.ru - самый крупный в мире бесплатный архив песенных текстов, аккордов, табулатур и нот


Brian Jonestown Massacre - Memory Camp - таба, видео

Регистрация Запомнить меня
Войти через:  Facebook Google Twitter Vk Yandex Mail.ru

Brian Jonestown Massacre - Memory Camp - таба, видео

Печатать
Просмотров: 102
------------------------------------------------------------------------------------------
                             Memory Camp - The Brian Jonestown Massacre
------------------------------------------------------------------------------------------

Probably my favourite song from their new album, Revelation. It's a little rough, but I think this tab
covers the whole song basically.

Tuning: EADGBE

Here are the order of the main chords that the acoustic plays underneath the whole song.

e|---7-----2-----5-----0--2--0---|
B|---7-----2-----7-----0--3--0---|
G|---7-----3-----7-----2--2--2---|
D|---9-----4-----7-----2--0--2---|
A|---9-----4-----5-----1--0--1---|
E|---7-----2-----x-----0--x--0---|

Here's the solo riff that plays throughout the whole song

e|---------------------------------------------------------------------------------------|
B|---------------------------------------------------------------------------------------|
G|------7-9-7-7--------------------------------------------------------------------------|
D|--7h9---------9--9--9-7----------------------------------------------------------------|
A|------------------------9--9/13-13-13-13-9---------------------------------5-7-5-5-----|
E|----------------------------------------------10-10--10-9-10-12--12----5h7---------7---|

e|---------------------------------------------------------------------------------------|
B|---------------------------------------------------------------------------------------|
G|----------------------------------------------------------7-9-7-7----------------------|
D|--9-7-------------------------------------------------7h9---------9--------------------|
A|--------9--9/13-13-13-13-16------------------------------------------------------------|
E|-------------------------------10-10--10-9-10-12--12-----------------------------------|

e|---------------------------------------------------------------------------------------|
B|---------------------------------------------------------------------------------------|
G|--------7-9-7-7------------------------------------------------------------------------|
D|----7h9---------9--9--9-7-----------------------7-7--7-6-7-9-9-9-9---------------------|
A|--------------------------9--9/13-13-13-13-9-----------------------7--7--7/9-----------|
E|---------------------------------------------------------------------------------------|


************************************

| /   slide up
| \   slide down
| h   hammer-on
| p   pull-off
| ~   vibrato
| +   harmonic
| x   Mute note
| b   Bend
| pb  Pre-bend
| br  Bend release
| pbr Pre-bend release
| brb Bend release bend

************************************
Добавлено: 25.11.2014
Другие материалы по этой песне:
  • Аккорды и текст

Страница создана 25.11.2014
http://primanota.ru/brian-jonestown-massacre/memory-camp-chords.htm
Привет, Гость.
Предлагаем пройти революционный курс по гитаре.
Подарок от PrimaNota.Ru, забирай!