PrimaNota.ru - самый крупный в мире бесплатный архив песенных текстов, аккордов, табулатур и нот


Brian Jonestown Massacre - Mansion In The Sky - аккорды и текст, таба, видео

Регистрация Запомнить меня
Войти через:  Facebook Google Twitter Vk Yandex Mail.ru

Brian Jonestown Massacre - Mansion In The Sky - аккорды и текст, таба, видео

Печатать
Просмотров: 169
Mansion In The Sky
Brian Jonestown Massacre
Intro     Am        G   Am  Asus4 Am             G  Am  Asus4 Am
        e------------------------------------------------------|
        B------------------------------------------------------|
        G-------------------7-5--------------------------7-5---|
        D-7-7-7/9-5---5-7-7-----7--5h7-7-7-7/9-5---5-7-7-----7-|
        A-----------7----------------------------7-------------|
        E------------------------------------------------------|

         D                      Am  Asus4 Am
        e-------------------------------------------------------|
        B---------------------8-8-8/10-10-10--------------------|
        G---5h7-7^---5h7/9-9-9-9-9--------------7-5-------------|
        D-7---------7-------------------------------7-5h7-7-7/9-|
        A-------------------------------------------------------|
        E-------------------------------------------------------|

            G Am   Asus4 Am
        e------------------|
        B------------------|
        G----------7-5-----|
        D-5---5-7------7---|
        A---7--------------|
        E------------------|


Verse         Am             G                  Am Asus4 Am
        Could you forget the awful things I've done
              Am             G                  Am Asus4 Am
        Could you forget the awful things I've done
                 D                                 Am Asus4 Am
        Well I'm sure I will become your favorite son
            Am             G                  Am Asus4 Am
        If you forgive the awful things I've done
               Am             G                  Am Asus4 Am
        Sweet Jesus could you wash my sins away
               Am             G                  Am Asus4 Am
        Sweet Jesus could you take this pain away
                D                            Am Asus Am
        If the devil offers no that I will say
              Am             G                  Am Asus4 Am
        Sweet Jesus' blood it washed my sins away


Repeat Intro


Verse   Am              G               Am Asus4 Am
        Take me in your mansion in the sky
        Am           G                 Am Asus4 Am
        Open up your big house in the sky
        D                                            Am Asus4 Am
        But don't ask me what I've done cause I will lie
        Am                     G                Am Asus4 Am
        Just make room in your mansion in the sky
        Am                G               Am Asus4 Am
        Make room in your mansion in the sky

Chords: Asus4 (X-0-2-2-3-0)
Добавлено: 29.02.2016
Другие материалы по этой песне:
  • Аккорды и текст

Страница создана 29.05.2012
http://primanota.ru/brian-jonestown-massacre/mansion-in-the-sky-chords.htm
Привет, Гость.
Предлагаем пройти революционный курс по гитаре.
Подарок от PrimaNota.Ru, забирай!