PrimaNota.ru - самый крупный в мире бесплатный архив песенных текстов, аккордов, табулатур и нот


Brian Jonestown Massacre - Hide And Seek - таба, видео

Регистрация Запомнить меня
Войти через:  Facebook Google Twitter Vk Yandex Mail.ru

Brian Jonestown Massacre - Hide And Seek - таба, видео

Печатать
Просмотров: 143
HIDE AND SEEK

CHORDS USED
B (7-9-9-8-7-7)------|
F# (2-4-4-3-2-2)-----|
A (5-7-7-6-5-5)------|
E (0-2-2-1-0-0)------|
F#2 (9-9-11-11-11-9)-|
E2 (7-7-9-9-9-7)-----|
D (5-5-7-7-7-5)------|


Intro:
 B                       F#                     A
e------------------------------------------------------|
B------------------------------------------------------|
G-11-11-11-11-11-11-11-11------------------------------|
D------------------------11-11-11-11-11-11-11-11-9-9-9-|
A------------------------------------------------------|
E------------------------------------------------------|

          E         B            F#
e-----------------------------------------------------|
B-----------------------------------------------------|
G-----------------------------------------------------|
D-9/7-7-7-7/9--4/7--9-9-9-9-9-9-9/8^-8^-8^-8^-8^-8^---|
A-----------------------------------------------------|
E-----------------------------------------------------|

          A                     E
e-----------------------------------------------------|
B-----------------------------------------------------|
G-----------------------------------------------------|
D-8^-8^-8^/9-9-9-9-9-9-9-9-9-9-9-9-9---4--------------|
A-----------------------------------------------------|
E-----------------------------------------------------|

B         F#                A        E
God only knows what I would do
B            F#               A       E
now that i found out hes with you
B            F#
watch as my world turns grey
    A                  E
i still cant find the words to say
B        F#             A        E
nobody loves you like i do

F#2  E2   B
ah---ah---ah
B
We play hide and seek
D  E2 B
ah-ah-ah

We play peek-a-boo
D  E2  B
Ah-ah-ah

Even I can see
A
Nothing good happens to you
Добавлено: 10.03.2012
Другие материалы по этой песне:

Страница создана 10.03.2012
http://primanota.ru/brian-jonestown-massacre/hide-and-seek-chords.htm
Привет, Гость.
Предлагаем пройти революционный курс по гитаре.
Подарок от PrimaNota.Ru, забирай!