PrimaNota.ru - самый крупный в мире бесплатный архив песенных текстов, аккордов, табулатур и нот


Brian Jonestown Massacre - Courtney Taylor - аккорды и текст, видео

Регистрация Запомнить меня
Войти через:  Facebook Google Twitter Vk Yandex Mail.ru

Brian Jonestown Massacre - Courtney Taylor - аккорды и текст, видео

Печатать
Просмотров: 95
Courtney Taylor
Brian Jonestown Massacre
Verse:
e--0---0----0-----0-0--
B--0---3----3-----2-2--
G--2---2----2-----2-2--
D----------------------
A----------------------
E----------------------
  Courtney  Tay  lor
     D                 Dsus2     E
When I might you right after the show
      A                D           Dsus2
Thought I knew you but I didn't know
E A     E
I found you

Verse: 
e--0---0----0-----0-0--
B--0---3----3-----2-2--
G--2---2----2-----2-2--
D----------------------
A----------------------
E----------------------
   Courtney  Tay  lor
     D               Dsus2     E
You heard it before and you'll hear it again
        A                        D            Dsus2
You should you do it to an enemy but not to your friend
       E  A    E
Since I'm with you
 
e--0---0----0-----0-0-----0---0----0-----0-0-----0---0----0-----0-0--
B--0---3----3-----2-2-----0---3----3-----2-2-----0---3----3-----2-2--
G--2---2----2-----2-2-----2---2----2-----2-2-----2---2----2-----2-2--
D--------------------------------------------------------------------
A--------------------------------------------------------------------
E--------------------------------------------------------------------
   Courtney  Tay  lor     Courtney  Tay  lor     Courtney  Tay  lor

Добавлено: 24.08.2015
Другие материалы по этой песне:
  • Аккорды и текст

Страница создана 24.08.2015
http://primanota.ru/brian-jonestown-massacre/courtney-taylor-chords.htm
Привет, Гость.
Предлагаем пройти революционный курс по гитаре.
Подарок от PrimaNota.Ru, забирай!