PrimaNota.ru - самый крупный в мире бесплатный архив песенных текстов, аккордов, табулатур и нот


Brian Jonestown Massacre - Bsa - таба, видео

Регистрация Запомнить меня
Войти через:  Facebook Google Twitter Vk Yandex Mail.ru

Brian Jonestown Massacre - Bsa - таба, видео

Печатать
Просмотров: 160
BSA

CHORDS USED
E (0-2-2-1-0-0)--|
A (5-7-7-6-5-5)--|
F# (2-4-4-3-2-2)-|
G (3-5-5-4-3-3)--|
B (7-9-9-8-7-7)--|

Intro:
  E
e------------------|
B------------------|
G------------------|
D------------------| x4
A-2-2-4-2-2-2-4-2--|
E-0-0-0-0-0-0-0-0--|


going to buy a motorcycle
so i can

  A (played like)
A-7-7-9-7-7-7-9-7-| x2
E-5-5-5-5-5-5-5-5-|
chase her down the street

E
never seen nothing like her
A
she nearly knocked me off my feet

E-0-1-2-
F#                  A                 E  E2 E
it's going to be a long cold winter
    F#
but i feel so warm
A
when i'm in her
                 E    E2  E
when i'm in her arms

E
she goes off like a shot-gun
               A
she's got me begging on my knees
E
like a kiss from jesus
         A
made me forget my diease

F#                 A
it's going to be a long cold winter
    F#
but i feel so warm
A
when i'm in her
                     E   E2 E
when i'm in her arms


E
Whoo whoo
D
Whoo Whoo
G
Whoo Whoo
B
Whoo Whoo

E
got a feeling
    D
i'm going in deep
             G
through your skinny arms around me
      B
until i can't breath
          E
and stop running away
       D                    G
stop running away from me
B
ah-ha-ha-ha-ah-ha-ah-ha-yeah!

Solo:
e----------------------------------------12-10----|
B--8-10-10^10^10^-8--------8-10h12-10h12-------12-|
G-9-----------------9-7--9------------------------|
D-------------------------------------------------|
A-------------------------------------------------|
E-------------------------------------------------|

e-12^12^12^...-17-15-12-10^12------------|
B----------------------------12-10-12^---|
G----------------------------------------|
D----------------------------------------|
A----------------------------------------|
E----------------------------------------|  continue along the same lines
Добавлено: 23.05.2012
Другие материалы по этой песне:
  • Аккорды и текст

Страница создана 23.05.2012
http://primanota.ru/brian-jonestown-massacre/bsa-chords.htm
Привет, Гость.
Предлагаем пройти революционный курс по гитаре.
Подарок от PrimaNota.Ru, забирай!