PrimaNota.ru - самый крупный в мире бесплатный архив песенных текстов, аккордов, табулатур и нот


Brian Johnson - We Will Not Be Shaken - аккорды и текст, видео

Регистрация Запомнить меня
Войти через:  Facebook Google Twitter Vk Yandex Mail.ru

Brian Johnson - We Will Not Be Shaken - аккорды и текст, видео

Печатать
Просмотров: 192
We Will Not Be Shaken
Brian Johnson
Artist: Bethel Music (Brian Johnson)
Album: We Will Not Be Shaken
Song: We Will Not Be Shaken


Key: A


Chords already exist on the Bethel Music website, but I wanted to create a personal version. Enjoy!


Dmaj9:
e |-0-|
B |-2-|
G |-2-|
D |-0-|
A |-X-|
E |-X-|
  

Intro:


e|---4----4----------2----2---------4----4----------2----2-------------|
B|---2----2----------2----2---------2----2----------2----2-------------|
G|---------------------------------------------------------------------|
D|---------------------------------------------------------------------|
A|-0---------------0--------------0---------------0--------------------|
E|---------------------------------------------------------------------|

e|---7----7----------5----5---------7----5----------5----5-------------|
B|---5----5----------5----5---------5----5----------5----5-------------|
G|---------------------------------------------------------------------|
D|---------------------------------------------------------------------|
A|-0---------------0--------------0---------------0--------------------|
E|---------------------------------------------------------------------|



Chorus (x2):
    A
For we trust in our God
    Dmaj9
And through His unfailing love
                 F#m7
We will not be shaken
                 A
We will not be shaken
                 Dmaj9
We will not be shaken


Interlude: A   Dmaj9  Bm7     F#m7   A   Dmaj9  


Verse:
           A
Though the battle rages
We will stand in the fight
               Dmaj9
And though the armies rise up
Against us on all sides
                 F#m7
We will not be shaken
                 A
We will not be shaken
                 Dmaj9
We will not be shaken


Pre-Chorus:
Bm7                      Dmaj9
  For in the hour of our darkest day
F#m7                    
   We will not tremble
         A7M  
We won't be afraid
Bm7                       Dmaj9
  Hope is rising like the light of dawn
A                          E
 Our God is for us, He has overcome


Chorus (x2):
    A
For we trust in our God
    Dmaj9
And through His unfailing love
                 F#m7
We will not be shaken
                 A
We will not be shaken
                 Dmaj9  ( A )
We will not be shaken


Bridge:
F#m7                           Dmaj9
  All those against Him will fall
                  A
For our God is stronger
           Esus4
He can do all things
F#m7                     Dmaj9
  No higher name we can call
                A
For Jesus is greater
           Esus4
We can do all things


Chorus (x2)
Добавлено: 29.07.2015
Другие материалы по этой песне:
  • Аккорды и текст

Страница создана 29.07.2015
http://primanota.ru/brian-johnson/we-will-not-be-shaken-chords.htm
Привет, Гость.
Предлагаем пройти революционный курс по гитаре.
Подарок от PrimaNota.Ru, забирай!