PrimaNota.ru - самый крупный в мире бесплатный архив песенных текстов, аккордов, табулатур и нот


Brian Head Welch - Washed By Blood - таба, видео

Регистрация Запомнить меня
Войти через:  Facebook Google Twitter Vk Yandex Mail.ru

Brian Head Welch - Washed By Blood - таба, видео

Печатать
Просмотров: 150
Brian Head Welch
Washed By Blood
Tabbed by U B the band
Tuning Bb F Bb Eb G C

Legend
pm-palm mute

Intro A: Guitar 2 (Clean & palm muted) PLAY 4 TIMES
 C|--12----------------12-----10------12------10------12----13----12----10----|
 G|--------13----10-----------------------------------------------------------|
Eb|---------------------------------------------------------------------------|
Bb|---------------------------------------------------------------------------|
 F|---------------------------------------------------------------------------|
Bb|---------------------------------------------------------------------------|

Intro B: Guitar 1 (Distorted) PLAY INTRO B 2 TIMES
 C|---------------------------------------------------------------------------|
 G|---------------------------------------------------------------------------|
Eb|--2------------------5-----------------------------------------------------|
Bb|--2------------------5------------------5------------------2----------4----|
 F|--0------------------3------------------5------------------2----------2----|
Bb|----------------------------------------5------------------2---------------|
                                                                              |
Intro B: Guitar 2 (Distorted)                                                 |
 C|--8-------7----10----12--------10-------7--------5---------7--------3------|
 G|---------------------------------------------------------------------------|
Eb|---------------------------------------------------------------------------|
Bb|---------------------------------------------------------------------------|
 F|---------------------------------------------------------------------------|
Bb|---------------------------------------------------------------------------|

Intro B: Guitar 1 (Distorted)
 C|-----------------------------------------------------------------|---------|
 G|-----------------------------------------------------------------|---------|
Eb|--2------------4-----5-------------------------------------3-----|----5----|
Bb|--2------------4-----5------------------5------------------3-----|----5----|
 F|--0------------2-----3------------------5------------------1-----|----3----|
Bb|----------------------------------------5------------------------|---------|
                                                 DON
Добавлено: 04.01.2014
Другие материалы по этой песне:
  • Аккорды и текст

Страница создана 04.01.2014
http://primanota.ru/brian-head-welch/washed-by-blood-chords.htm
Привет, Гость.
Предлагаем пройти революционный курс по гитаре.
Подарок от PrimaNota.Ru, забирай!