PrimaNota.ru - самый крупный в мире бесплатный архив песенных текстов, аккордов, табулатур и нот


Brian Head Welch - Save Me From Myself (album) - таба, видео

Регистрация Запомнить меня
Войти через:  Facebook Google Twitter Vk Yandex Mail.ru

Brian Head Welch - Save Me From Myself (album) - таба, видео

Печатать
Просмотров: 161
Brian Head Welch
Save Me From Myself (Album Tab)
ALL TABS by U B the band

LEGEND FOR ALL TABS
h-hammer on                      p-pull off                     /-slide up
\-slide down                     b-bend                         r-return bend
pm-palm mute


1. L.O.V.E.


Intro: Guitar 2 (Clean)
 B|-----17----------------------------15-----17-------------------------------|
F#|----------17-14-----17-14----14----------------17-14-----17-14----15----18-|
 D|--14---14--------14-------14----14-----14---14--------14-------14----15----|
 A|---------------------------------------------------------------------------|
 E|---------------------------------------------------------------------------|
 A|---------------------------------------------------------------------------|

Intro: Guitar 2 (Clean)
 B|-----17----------------------------15-----17-------------------------------|
F#|----------17-14-----17-14----14----------------17-14-----17-14-------15-18-|
 D|--14---14--------14-------14----14-----14---14--------14-------14-15-------|
 A|---------------------------------------------------------------------------|
 E|---------------------------------------------------------------------------|
 A|---------------------------------------------------------------------------|

Intro: Guitars 1 & 2 (Distorted) PLAY ENTIRE DISTORTED INTRO 2 TIMES
 B|---------------------------------------------------------------------------|
F#|---------------------------------------------------------------------------|
 D|---------------------------------------------------------------------------|
 A|--10--\-9-----------------2---2----------9--\-7-----------------2---2------|
 E|---8--\-7---0---5p0---3---0---0----------7--\-5---0---5p0---3---0---0------|
 A|---------------------------------------------------------------------------|

Intro: Guitars 1 & 2 (Distorted)
 B|---------------------------------------------------------------------------|
F#|---------------------------------------------------------------------------|
 D|---------------------------------------------------------------------------|
 A|--10--\-9-----------------2---2----------9--\-7----------------2----10-----|
 E|---8--\-7---0---5p0---3---0---0----------7--\-5---0---5p0---3--0-----8-----|
 A|---------------------------------------------------------------------------|

Verse 1: Guitar 1 (Distorted) PLAY ENTIRE VERSE 2 TIMES
 B|---------------------------------------------------------------------------|
F#|---------------------------------------------------------------------------|
 D|---------------------------------------------------------------------------|
 A|--10--\-9-----------------2---2----------9--\-7-----------------2---2------|
 E|---8--\-7---0---5p0---3---0---0----------7--\-5---0---5p0---3---0---0------|
 A|---------------------------------------------------------------------------|
                                                                              |
Verse 1: Guitar 2 (clean with effects)                                        |
 B|---------------------------------------------------------------------------|
F#|--17-------------------------------------18--------------------------------|
 D|----------------------------------14------------------------------------14-|
 A|---------------------------------------------------------------------------|
 E|---------------------------------------------------------------------------|
 A|---------------------------------------------------------------------------|

Verse 1: Guitar 1 (Distorted)
 B|---------------------------------------------------------------------------|
F#|---------------------------------------------------------------------------|
 D|---------------------------------------------------------------------------|
 A|--10--\-9-----------------2---2----------9--\-7----------------2----10-----|
 E|---8--\-7---0---5p0---3---0---0----------7--\-5---0---5p0---3--0-----8-----|
 A|---------------------------------------------------------------------------|
                                                                              |
Verse 1: Guitar 2 (clean with effects)                                        |
 B|--------------------------------------------------------------------15-----|
F#|--15-------------------------------------18---------------18---17----------|
 D|----------------------------------14---------------14----------------------|
 A|---------------------------------------------------------------------------|
 E|---------------------------------------------------------------------------|
 A|---------------------------------------------------------------------------|

Verse 1: Guitar 1 (Distorted)
 B|---------------------------------------------------------------------------|
F#|---------------------------------------------------------------------------|
 D|---------------------------------------------------------------------------|
 A|--10--\-9-----------------2---2----------9--\-7-----------------2---2------|
 E|---8--\-7---0---5p0---3---0---0----------7--\-5---0---5p0---3---0---0------|
 A|---------------------------------------------------------------------------|
                                                                              |
Verse 1: Guitar 2 (clean with effects)                                        |
 B|---------------------------------------------------------------------------|
F#|--17----------------------14-------------15--------------------------------|
 D|----------------------------------14------------------------------------14-|
 A|---------------------------------------------------------------------------|
 E|---------------------------------------------------------------------------|
 A|---------------------------------------------------------------------------|

Verse: Guitar 1 (Distorted)
 B|---------------------------------------------------------------------------|
F#|---------------------------------------------------------------------------|
 D|---------------------------------------------------------------------------|
 A|--10--\-9-----------------2---2----------9--\-7----------------2----10-----|
 E|---8--\-7---0---5p0---3---0---0----------7--\-5---0---5p0---3--0-----8-----|
 A|---------------------------------------------------------------------------|
                                                                              |
Verse 1: Guitar 2 (clean with effects)                                        |
 B|---------------------------------------------------------------------------|
F#|--13----------------------15--------17---15--------------------18---13-----|
 D|-----------------------14--------14-------------------------14-------------|
 A|---------------------------------------------------------------------------|
 E|---------------------------------------------------------------------------|
 A|---------------------------------------------------------------------------|

Pre Chorus: Guitar 1 (Distorted) PLAY 2 TIMES
 B|---------------------------------------------------------------------------|
F#|--3------------------------------------------------------------------------|
 D|--2-----------------------------------5------------------------------------|
 A|--0-----------------3-----------------5-----------------5------------------|
 E|--0-----------------3-----------------3-----------------5------------------|
 A|--0-----------------3-----------------------------------5------------------|
                                                                              |
Pre Chorus: Guitar 2 (Distorted) STRUM                                        |
 B|---------------------------------------------------------------------------|
F#|--15-------17-------13-------12-------13-----15-----13--12-----13-----15---|
 D|---x--------x--------x--------x--------x------x------x---x------x------x---|
 A|--12-------14-------10--------9-------10-----12-----10---9-----10-----12---|
 E|---------------------------------------------------------------------------|
 A|---------------------------------------------------------------------------|

Chorus: Guitar 1 (Distorted) PLAY 2 TIMES
 B|---------------------------------------------------------------------------|
F#|--3------------------------------------------------------------------------|
 D|--2--------2--------------------------5------5-----------------------------|
 A|--0--------0--------3--------3--------5------5----------5------5-----------|
 E|--0--------0--------3--------3--------3------3----------5------5-----------|
 A|--0--------0--------3--------3--------------------------5------5-----------|
                                                                              |
Chorus: Guitar 2 (Distorted) STRUM                                            |
 B|---------------------------------------------------------------------------|
F#|--15-------17-------13-------12-------13-----15-----13--12-----13-----15---|
 D|---x--------x--------x--------x--------x------x------x---x------x------x---|
 A|--12-------14-------10--------9-------10-----12-----10---9-----10-----12---|
 E|---------------------------------------------------------------------------|
 A|---------------------------------------------------------------------------|

Post Chorus: Guitars 1 & 2 (Distorted)
 B|---------------------------------------------------------------------------|
F#|---------------------------------------------------------------------------|
 D|---------------------------------------------------------------------------|
 A|--10--\-9-----------------2---2----------9--\-7-----------------2---2------|
 E|---8--\-7---0---5p0---3---0---0----------7--\-5---0---5p0---3---0---0------|
 A|---------------------------------------------------------------------------|

Post Chorus: Guitars 1 & 2 (Distorted)
 B|---------------------------------------------------------------------------|
F#|---------------------------------------------------------------------------|
 D|---------------------------------------------------------------------------|
 A|--10--\-9-----------------2---2----------9--\-7----------------2----10-----|
 E|---8--\-7---0---5p0---3---0---0----------7--\-5---0---5p0---3--0-----8-----|
 A|---------------------------------------------------------------------------|

Verse 1: Guitar 1 (Distorted) PLAY ENTIRE VERSE 2 TIMES
 B|---------------------------------------------------------------------------|
F#|---------------------------------------------------------------------------|
 D|---------------------------------------------------------------------------|
 A|--10--\-9-----------------2---2----------9--\-7-----------------2---2------|
 E|---8--\-7---0---5p0---3---0---0----------7--\-5---0---5p0---3---0---0------|
 A|---------------------------------------------------------------------------|
                                                                              |
Verse 1: Guitar 2 (clean with effects)                                        |
 B|---------------------------------------------------------------------------|
F#|--17-------------------------------------18--------------------------------|
 D|----------------------------------14------------------------------------14-|
 A|---------------------------------------------------------------------------|
 E|---------------------------------------------------------------------------|
 A|---------------------------------------------------------------------------|

Verse 1: Guitar 1 (Distorted)
 B|---------------------------------------------------------------------------|
F#|---------------------------------------------------------------------------|
 D|---------------------------------------------------------------------------|
 A|--10--\-9-----------------2---2----------9--\-7----------------2----10-----|
 E|---8--\-7---0---5p0---3---0---0----------7--\-5---0---5p0---3--0-----8-----|
 A|---------------------------------------------------------------------------|
                                                                              |
Verse 1: Guitar 2 (clean with effects)                                        |
 B|--------------------------------------------------------------------15-----|
F#|--15-------------------------------------18---------------18---17----------|
 D|----------------------------------14---------------14----------------------|
 A|---------------------------------------------------------------------------|
 E|---------------------------------------------------------------------------|
 A|---------------------------------------------------------------------------|

Verse 1: Guitar 1 (Distorted)
 B|---------------------------------------------------------------------------|
F#|---------------------------------------------------------------------------|
 D|---------------------------------------------------------------------------|
 A|--10--\-9-----------------2---2----------9--\-7-----------------2---2------|
 E|---8--\-7---0---5p0---3---0---0----------7--\-5---0---5p0---3---0---0------|
 A|---------------------------------------------------------------------------|
                                                                              |
Verse 1: Guitar 2 (clean with effects)                                        |
 B|---------------------------------------------------------------------------|
F#|--17----------------------14-------------15--------------------------------|
 D|----------------------------------14------------------------------------14-|
 A|---------------------------------------------------------------------------|
 E|---------------------------------------------------------------------------|
 A|---------------------------------------------------------------------------|

Verse: Guitar 1 (Distorted)
 B|---------------------------------------------------------------------------|
F#|---------------------------------------------------------------------------|
 D|---------------------------------------------------------------------------|
 A|--10--\-9-----------------2---2----------9--\-7----------------2----10-----|
 E|---8--\-7---0---5p0---3---0---0----------7--\-5---0---5p0---3--0-----8-----|
 A|---------------------------------------------------------------------------|
                                                                              |
Verse 1: Guitar 2 (clean with effects)                                        |
 B|---------------------------------------------------------------------------|
F#|--13----------------------15--------17---15--------------------18---13-----|
 D|-----------------------14--------14-------------------------14-------------|
 A|---------------------------------------------------------------------------|
 E|---------------------------------------------------------------------------|
 A|---------------------------------------------------------------------------|

Pre Chorus: Guitar 1 (Distorted) PLAY 2 TIMES
 B|---------------------------------------------------------------------------|
F#|--3------------------------------------------------------------------------|
 D|--2-----------------------------------5------------------------------------|
 A|--0-----------------3-----------------5-----------------5------------------|
 E|--0-----------------3-----------------3-----------------5------------------|
 A|--0-----------------3-----------------------------------5------------------|
                                                                              |
Pre Chorus: Guitar 2 (Distorted) STRUM                                        |
 B|---------------------------------------------------------------------------|
F#|--15-------17-------13-------12-------13-----15-----13--12-----13-----15---|
 D|---x--------x--------x--------x--------x------x------x---x------x------x---|
 A|--12-------14-------10--------9-------10-----12-----10---9-----10-----12---|
 E|---------------------------------------------------------------------------|
 A|---------------------------------------------------------------------------|

Chorus: Guitar 1 (Distorted) PLAY 2 TIMES
 B|---------------------------------------------------------------------------|
F#|--3------------------------------------------------------------------------|
 D|--2--------2--------------------------5------5-----------------------------|
 A|--0--------0--------3--------3--------5------5----------5------5-----------|
 E|--0--------0--------3--------3--------3------3----------5------5-----------|
 A|--0--------0--------3--------3--------------------------5------5-----------|
                                                                              |
Chorus: Guitar 2 (Distorted) STRUM                                            |
 B|---------------------------------------------------------------------------|
F#|--15-------17-------13-------12-------13-----15-----13--12-----13-----15---|
 D|---x--------x--------x--------x--------x------x------x---x------x------x---|
 A|--12-------14-------10--------9-------10-----12-----10---9-----10-----12---|
 E|---------------------------------------------------------------------------|
 A|---------------------------------------------------------------------------|

Bridge: Guitar 2 (Clean)
 B|-----17----------------------------15-----17-------------------------------|
F#|----------17-14-----17-14----14----------------17-14-----17-14-------15-18-|
 D|--14---14--------14-------14----14-----14---14--------14-------14-15-------|
 A|---------------------------------------------------------------------------|
 E|---------------------------------------------------------------------------|
 A|---------------------------------------------------------------------------|

Bridge: Guitar 2 (Clean)
 B|-----17----------------------------15-----17-------------------------------|
F#|----------17-14-----17-14----14----------------17-14-----17-14----15----18-|
 D|--14---14--------14-------14----14-----14---14--------14-------14----15----|
 A|---------------------------------------------------------------------------|
 E|---------------------------------------------------------------------------|
 A|---------------------------------------------------------------------------|

Bridge: Guitar 1 (Distorted)
 B|---------------------------------------------------------------------------|
F#|---------------------------------------------------------------------------|
 D|----2-----------2------------------------2-----------2---------------------|
 A|----2-----------2------------------------2-----------2---------------------|
 E|----0-----------0------------------------0-----------0---------------------|
 A|---------------------------------------------------------------------------|
                                                                              |
Bridge: Guitar 2 (Clean)                                                      |
 B|-----17----------------------------15-----17-------------------------------|
F#|----------17-14-----17-14----14----------------17-14-----17-14-------15-18-|
 D|--14---14--------14-------14----14-----14---14--------14-------14-15-------|
 A|---------------------------------------------------------------------------|
 E|---------------------------------------------------------------------------|
 A|---------------------------------------------------------------------------|

Bridge: Guitar 1 (Distorted)
 B|---------------------------------------------------------------------------|
F#|---------------------------------------------------------------------------|
 D|----2-----------2------------------------2-----------2---------------------|
 A|----2-----------2--------------2--2---2--2-----------2-------------2--2---2|
 E|----0-----------0--------------0--0---0--0-----------0-------------0--0---0|
 A|---------------------------------------------------------------------------|
                                                                              |
Bridge: Guitar 2 (Clean)                                                      |
 B|-----17----------------------------15-----17-------------------------------|
F#|----------17-14-----17-14----14----------------17-14-----17-14----15----18-|
 D|--14---14--------14-------14----14-----14---14--------14-------14----15----|
 A|---------------------------------------------------------------------------|
 E|---------------------------------------------------------------------------|
 A|---------------------------------------------------------------------------|

Bridge: Guitar 1 (Distorted)
 B|---------------------------------------------------------------------------|
F#|---------------------------------------------------------------------------|
 D|----2-----------2------------------------2-----------2---------------------|
 A|----2-----------2--------------2--2---2--2-----------2-------------2--2---2|
 E|----0-----------0--------------0--0---0--0-----------0-------------0--0---0|
 A|---------------------------------------------------------------------------|
                                                                              |
Bridge: Guitar 2 (Clean)                                                      |
 B|-----17----------------------------15-----17-------------------------------|
F#|----------17-14-----17-14----14----------------17-14-----17-14-------15-18-|
 D|--14---14--------14-------14----14-----14---14--------14-------14-15-------|
 A|---------------------------------------------------------------------------|
 E|---------------------------------------------------------------------------|
 A|---------------------------------------------------------------------------|

Bridge: Guitar 2 (Clean)
 B|-----------------------------------15--------------------------------------|
F#|------14--17--14----17-14----14------------14--17--14----17-14----14----15-|
 D|--14-------------14-------14----14-----14-------------14-------14----14----|
 A|---------------------------------------------------------------------------|
 E|---------------------------------------------------------------------------|
 A|---------------------------------------------------------------------------|

Retro: Guitars 1 & 2 (Distorted)
 B|---------------------------------------------------------------------------|
F#|---------------------------------------------------------------------------|
 D|---------------------------------------------------------------------------|
 A|--10--\-9-----------------2---2----------9--\-7-----------------2---2------|
 E|---8--\-7---0---5p0---3---0---0----------7--\-5---0---5p0---3---0---0------|
 A|---------------------------------------------------------------------------|

Retro: Guitars 1 & 2 (Distorted)
 B|---------------------------------------------------------------------------|
F#|---------------------------------------------------------------------------|
 D|---------------------------------------------------------------------------|
 A|--10--\-9-----------------2---2----------9--\-7----------------2----10-----|
 E|---8--\-7---0---5p0---3---0---0----------7--\-5---0---5p0---3--0-----8-----|
 A|---------------------------------------------------------------------------|

Pre Chorus 2: Guitar 1 (Distorted) PLAY 2 TIMES
 B|---------------------------------------------------------------------------|
F#|--3------------------------------------------------------------------------|
 D|--2-----------------------------------5------------------------------------|
 A|--0-----------------3-----------------5-----------------5------------------|
 E|--0-----------------3-----------------3-----------------5------------------|
 A|--0-----------------3-----------------------------------5------------------|
                                                                              |
Pre Chorus 2: Guitar 2 (Distorted) STRUM                                      |
 B|---------------------------------------------------------------------------|
F#|--15-------17-------13-------12-------13-----15-----13--12-----13-----15---|
 D|---x--------x--------x--------x--------x------x------x---x------x------x---|
 A|--12-------14-------10--------9-------10-----12-----10---9-----10-----12---|
 E|---------------------------------------------------------------------------|
 A|---------------------------------------------------------------------------|

 Chorus: Guitar 1 (Distorted) PLAY 2 TIMES
 B|---------------------------------------------------------------------------|
F#|--3------------------------------------------------------------------------|
 D|--2--------2--------------------------5------5-----------------------------|
 A|--0--------0--------3--------3--------5------5----------5------5-----------|
 E|--0--------0--------3--------3--------3------3----------5------5-----------|
 A|--0--------0--------3--------3--------------------------5------5-----------|
                                                                              |
Chorus: Guitar 2 (Distorted) STRUM                                            |
 B|---------------------------------------------------------------------------|
F#|--15-------17-------13-------12-------13-----15-----13--12-----13-----15---|
 D|---x--------x--------x--------x--------x------x------x---x------x------x---|
 A|--12-------14-------10--------9-------10-----12-----10---9-----10-----12---|
 E|---------------------------------------------------------------------------|
 A|---------------------------------------------------------------------------|

Outro: Guitars 1 & 2 (Distorted)
 B|---------------------------------------------------------------------------|
F#|---------------------------------------------------------------------------|
 D|---------------------------------------------------------------------------|
 A|--10--\-9-----------------2---2----------9--\-7----------------2----10-----|
 E|---8--\-7---0---5p0---3---0---0----------7--\-5---0---5p0---3--0-----8-----|
 A|---------------------------------------------------------------------------|

Outro: Guitars 1 & 2 (Distorted)
 B|---------------------------------------------------------------------------|
F#|---------------------------------------------------------------------------|
 D|---------------------------------------------------------------------------|
 A|--10--\-9-----------------2---2----------9--\-7-----------------2---2------|
 E|---8--\-7---0---5p0---3---0---0----------7--\-5---0---5p0---3---0---0------|
 A|---------------------------------------------------------------------------|

Outro: Guitars 1 & 2 (Distorted)
 B|---------------------------------------------------------------------------|
F#|---------------------------------------------------------------------------|
 D|---------------------------------------------------------------------------|
 A|--10--\-9-----------------2---2----------9--\-7-----------------2----------|
 E|---8--\-7---0---5p0---3---0---0----------7--\-5---0---5p0---3---0----------|
 A|---------------------------------------------------------------------------|

Finished!


2. FLUSH


Intro/Verse 1: Guitar 1 (Distorted) PLAY 4 TIMES
 B|---------------------------------------------------------------------------|
F#|---------------------------------------------------------------------------|
 D|---------------------------------------------------------------------------|
 A|---------------------------------------------------------------------------|
 E|---------1------------------------------1----------------------------------|
 A|--1---1------1---1---------------1---1------1---1------0-h1p0-2------------|

Pre Chorus: Guitar 1 (Distorted) PLAY 2 TIMES
 B|---------------------------------------------------------------------------|
F#|---------------------------------------------------------------------------|
 D|---------------------------------------------------------------------------|
 A|---------------------------------------------------------------------------|
 E|---------1------------------------------1----------------------------------|
 A|--1---1------1---1---------------1---1------1---1------0-h1p0-2------------|
                                                                              |
Pre Chorus: Guitar 2 (Clean with effects) PLAY 2 TIMES                        |
 B|-----18--19-18-----18---------------18--19-18------------------------------|
F#|--16------------16-----16-19-----16------------16-19--16-18----------------|
 D|---------------------------------------------------------------------------|
 A|---------------------------------------------------------------------------|
 E|---------------------------------------------------------------------------|
 A|---------------------------------------------------------------------------|

Chorus: Guitar 1: (Distorted)
 B|---------------------------------------------------------------------------|
F#|---------------------------------------------------------------------------|
 D|---------------------------------------------------------------------------|
 A|--6-6-6-6-6-6-6-6--4-4-4-4-4-4-4-4--2-2-2-2-2-2-2-2--/6-6-6-6--------------|
 E|--6-6-6-6-6-6-6-6--4-4-4-4-4-4-4-4--2-2-2-2-2-2-2-2--/4-4-4-4--1-1-5-5-----|
 A|--6-6-6-6-6-6-6-6--4-4-4-4-4-4-4-4--2-2-2-2-2-2-2-2------------1-1-5-5-----|
                                                                              |
Chorus: Guitar 2: (Distorted with tremolo)                                    |
 B|---------------------------------------------------------------------------|
F#|---------------------------------------------------------------------------|
 D|--13-----------------------------------------------------------------------|
 A|---x-----------------------------------------------------------------------|
 E|--11-----------------------------------------------------------------------|
 A|---------------------------------------------------------------------------|

Chorus: Guitar 1: (Distorted)
 B|---------------------------------------------------------------------------|
F#|---------------------------------------------------------------------------|
 D|---------------------------------------------------------------------------|
 A|--6-6-6-6-6-6-6-6--4-4-4-4-4-4-4-4--2-2-2-2-2-2-2-2--/6-6-6-6--------------|
 E|--6-6-6-6-6-6-6-6--4-4-4-4-4-4-4-4--2-2-2-2-2-2-2-2--/4-4-4-4--1-1-5-5-----|
 A|--6-6-6-6-6-6-6-6--4-4-4-4-4-4-4-4--2-2-2-2-2-2-2-2------------1-1-5-5-----|
                                                                              |
Chorus: Guitar 2: (Distorted with tremolo)                                    |
 B|---------------------------------------------------------------------------|
F#|---------------------------------------------------------------------------|
 D|--13-----/16-------15-----/18-------16------15--------13-------12----------|
 A|---x-------x--------x-------x--------x-------x---------x--------x----------|
 E|--11-----/18-------13-----/15-------14------13--------11-------10----------|
 A|---------------------------------------------------------------------------|

Post Chorus: Guitar 1 (Distorted)
 B|---------------------------------------------------------------------------|
F#|---------------------------------------------------------------------------|
 D|---------------------------------------------------------------------------|
 A|---------------------------------------------------------------------------|
 E|---------1------------------------------1----------------------------------|
 A|--1---1------1---1---------------1---1------1---1------0-h1p0-2------------|
                                                                              |
Post Chorus: Guitar 2 (Clean with effects)                                    |
 B|-----18--19-18-----18---------------18--19-18------------------------------|
F#|--16------------16-----16-19-----16------------16-19--16-18----------------|
 D|---------------------------------------------------------------------------|
 A|---------------------------------------------------------------------------|
 E|---------------------------------------------------------------------------|
 A|---------------------------------------------------------------------------|

Post Chorus: Guitar 1 (Distorted)
 B|---------------------------------------------------------------------------|
F#|---------------------------------------------------------------------------|
 D|---------------------------------------------------------------------------|
 A|---------------------------------------------------------------------------|
 E|---------1------------------------------1----------------------------------|
 A|--1---1------1---1---------------1---1------1---1------0h1h2---------------|
                                                                              |
Post Chorus: Guitar 2 (Clean with effects)                                    |
 B|-----18--19-18-----18---------------18--19-18------------------------------|
F#|--16------------16-----16-19-----16------------16-19--18-------------------|
 D|---------------------------------------------------------------------------|
 A|---------------------------------------------------------------------------|
 E|---------------------------------------------------------------------------|
 A|---------------------------------------------------------------------------|

Verse 2: Guitar 1 (Distorted) PLAY 4 TIMES
 B|---------------------------------------------------------------------------|
F#|---------------------------------------------------------------------------|
 D|---------------------------------------------------------------------------|
 A|---------------------------------------------------------------------------|
 E|---------1------------------------------1----------------------------------|
 A|--1---1------1---1---------------1---1------1---1------0-h1p0-2------------|

Pre Chorus: Guitar 1 (Distorted) PLAY 2 TIMES
 B|---------------------------------------------------------------------------|
F#|---------------------------------------------------------------------------|
 D|---------------------------------------------------------------------------|
 A|---------------------------------------------------------------------------|
 E|---------1------------------------------1----------------------------------|
 A|--1---1------1---1---------------1---1------1---1------0-h1p0-2------------|
                                                                              |
Pre Chorus: Guitar 2 (Clean with effects) PLAY 2 TIMES                        |
 B|-----18--19-18-----18---------------18--19-18------------------------------|
F#|--16------------16-----16-19-----16------------16-19--16-18----------------|
 D|---------------------------------------------------------------------------|
 A|---------------------------------------------------------------------------|
 E|---------------------------------------------------------------------------|
 A|---------------------------------------------------------------------------|

Chorus: Guitar 1: (Distorted)
 B|---------------------------------------------------------------------------|
F#|---------------------------------------------------------------------------|
 D|---------------------------------------------------------------------------|
 A|--6-6-6-6-6-6-6-6--4-4-4-4-4-4-4-4--2-2-2-2-2-2-2-2--/6-6-6-6--------------|
 E|--6-6-6-6-6-6-6-6--4-4-4-4-4-4-4-4--2-2-2-2-2-2-2-2--/4-4-4-4--1-1-5-5-----|
 A|--6-6-6-6-6-6-6-6--4-4-4-4-4-4-4-4--2-2-2-2-2-2-2-2------------1-1-5-5-----|
                                                                              |
Chorus: Guitar 2: (Distorted with tremolo)                                    |
 B|---------------------------------------------------------------------------|
F#|---------------------------------------------------------------------------|
 D|--13-----------------------------------------------------------------------|
 A|---x-----------------------------------------------------------------------|
 E|--11-----------------------------------------------------------------------|
 A|---------------------------------------------------------------------------|

Chorus: Guitar 1: (Distorted)
 B|---------------------------------------------------------------------------|
F#|---------------------------------------------------------------------------|
 D|---------------------------------------------------------------------------|
 A|--6-6-6-6-6-6-6-6--4-4-4-4-4-4-4-4--2-2-2-2-2-2-2-2--/6-6-6-6--------------|
 E|--6-6-6-6-6-6-6-6--4-4-4-4-4-4-4-4--2-2-2-2-2-2-2-2--/4-4-4-4--1-1-5-5-----|
 A|--6-6-6-6-6-6-6-6--4-4-4-4-4-4-4-4--2-2-2-2-2-2-2-2------------1-1-5-5-----|
                                                                              |
Chorus: Guitar 2: (Distorted with tremolo)                                    |
 B|---------------------------------------------------------------------------|
F#|---------------------------------------------------------------------------|
 D|--13-----/16-------15-----/18-------16------15--------13-------12----------|
 A|---x-------x--------x-------x--------x-------x---------x--------x----------|
 E|--11-----/18-------13-----/15-------14------13--------11-------10----------|
 A|---------------------------------------------------------------------------|

Bridge: Guitar 1 (Distorted)
 B|---------------------------------------------------------------------------|
F#|---------------------------------------------------------------------------|
 D|---------------------------------------------------------------------------|
 A|--1---------------------------------1--------------------------------------|
 E|--1---------------------------1-----1---------------------------1--2-------|
 A|--1---------------------1--2-----2--1---------------------1--2-------------|
                                                                              |
Bridge: Guitar 2 (Distorted with phase shifter)                               |
 B|------16--15------15----------16--------16--15------------------18-19------|
F#|--16----------16--------16-17----17-16----------16--16----16-17------------|
 D|---------------------------------------------------------------------------|
 A|---------------------------------------------------------------------------|
 E|---------------------------------------------------------------------------|
 A|---------------------------------------------------------------------------|

Bridge: Guitar 1 (Distorted) "Tell me no gossip"
 B|---------------------------------------------------------------------------|
F#|---------------------------------------------------------------------------|
 D|---------------------------------------------------------------------------|
 A|--2---------------------4-----------2--------------------------------------|
 E|--2---------------------4-----------2--------------------------------------|
 A|--2---------------------4-----------2---------------------5--4--3--2-------|
                                                                              |
Bridge: Guitar 2 (Distorted with phase shifter)                               |
 B|------19--18------16----18-19-21-19-18--19--18--19-------------------------|
F#|--19----------19------------------------------------19----20-19-18-17------|
 D|---------------------------------------------------------------------------|
 A|---------------------------------------------------------------------------|
 E|---------------------------------------------------------------------------|
 A|---------------------------------------------------------------------------|

Bridge: Guitar 1 (Distorted)
 B|---------------------------------------------------------------------------|
F#|---------------------------------------------------------------------------|
 D|---------------------------------------------------------------------------|
 A|--1---------------------------------1--------------------------------------|
 E|--1---------------------------1-----1---------------------------1--2-------|
 A|--1---------------------1--2-----2--1---------------------1--2-------------|
                                                                              |
Bridge: Guitar 2 (Distorted with phase shifter)                               |
 B|------16--15------15----------16--------16--15------------------18-19------|
F#|--16----------16--------16-17----17-16----------16--16----16-17------------|
 D|---------------------------------------------------------------------------|
 A|---------------------------------------------------------------------------|
 E|---------------------------------------------------------------------------|
 A|---------------------------------------------------------------------------|
                                                                              |
Bridge: Guitar 3 (Distorted with phase shifter)                               |
 B|---------------------------------------------------------------------------|
F#|--------------14----------16--14----------------14---------16--14----------|
 D|--12--13--12------12----13--13---13-12--13--12------12---13--13------------|
 A|---------------------------------------------------------------------------|
 E|---------------------------------------------------------------------------|
 A|---------------------------------------------------------------------------|

Bridge: Guitar 1 (Distorted) "Jimmy got caught"
 B|---------------------------------------------------------------------------|
F#|---------------------------------------------------------------------------|
 D|---------------------------------------------------------------------------|
 A|--1---------------------------------1--------------------------------------|
 E|--1---------------------------1-----1---------------------------1--2-------|
 A|--1---------------------1--2-----2--1---------------------1--2-------------|
                                                                              |
Bridge: Guitar 2 (Distorted with phase shifter)                               |
 B|------16--15------15----------16--------16--15------------------18-19------|
F#|--16----------16--------16-17----17-16----------16--16----16-17------------|
 D|---------------------------------------------------------------------------|
 A|---------------------------------------------------------------------------|
 E|---------------------------------------------------------------------------|
 A|---------------------------------------------------------------------------|

Bridge: Guitar 1 (Distorted) "Lisa got popped"
 B|---------------------------------------------------------------------------|
F#|---------------------------------------------------------------------------|
 D|---------------------------------------------------------------------------|
 A|--1---------------------------------1--------------------------------------|
 E|--1---------------------------1-----1---------------------------1--2-------|
 A|--1---------------------1--2-----2--1---------------------1--2-------------|
                                                                              |
Bridge: Guitar 2 (Distorted with phase shifter)                               |
 B|------16--15------15----------16--------16--15------------------18-19------|
F#|--16----------16--------16-17----17-16----------16--16----16-17------------|
 D|---------------------------------------------------------------------------|
 A|---------------------------------------------------------------------------|
 E|---------------------------------------------------------------------------|
 A|---------------------------------------------------------------------------|

Bridge: Guitar 1 (Distorted) "Tell me no gossip"
 B|---------------------------------------------------------------------------|
F#|---------------------------------------------------------------------------|
 D|---------------------------------------------------------------------------|
 A|--2---------------------4-----------2--------------------------------------|
 E|--2---------------------4-----------2--------------------------------------|
 A|--2---------------------4-----------2---------------------5--4--3--2-------|
                                                                              |
Bridge: Guitar 2 (Distorted with phase shifter)                               |
 B|------19--18------16----18-19-21-19-18--19--18--19-------------------------|
F#|--19----------19------------------------------------19----20-19-18-17------|
 D|---------------------------------------------------------------------------|
 A|---------------------------------------------------------------------------|
 E|---------------------------------------------------------------------------|
 A|---------------------------------------------------------------------------|

Bridge: Guitar 1 (Distorted)
 B|---------------------------------------------------------------------------|
F#|---------------------------------------------------------------------------|
 D|---------------------------------------------------------------------------|
 A|--1------------------------------------------------------------------------|
 E|--1---------------------------1--2-----------------------------------------|
 A|--1---------------------1--2-----------------------------------------------|
                                                                              |
Bridge: Guitar 2 (Distorted with phase shifter)                               |
 B|------16--15------------------18-19----------------------------------------|
F#|--16----------16--16----16-17----------------------------------------------|
 D|---------------------------------------------------------------------------|
 A|---------------------------------------------------------------------------|
 E|---------------------------------------------------------------------------|
 A|---------------------------------------------------------------------------|
                                                                              |
Bridge: Guitar 3 (Distorted with phase shifter)                               |
 B|---------------------------------------------------------------------------|
F#|--------------14----------16--14-------------------------------------------|
 D|--12--13--12------12----13--13---------------------------------------------|
 A|---------------------------------------------------------------------------|
 E|---------------------------------------------------------------------------|
 A|---------------------------------------------------------------------------|

Bridge: Guitar 1 (Distorted) "Pedro got jumped"
 B|---------------------------------------------------------------------------|
F#|---------------------------------------------------------------------------|
 D|---------------------------------------------------------------------------|
 A|--1---------------------------------1--------------------------------------|
 E|--1---------------------------1-----1---------------------------1--2-------|
 A|--1---------------------1--2-----2--1---------------------1--2-------------|
                                                                              |
Bridge: Guitar 2 (Distorted with phase shifter)                               |
 B|------16--15------15----------16--------16--15------------------18-19------|
F#|--16----------16--------16-17----17-16----------16--16----16-17------------|
 D|---------------------------------------------------------------------------|
 A|---------------------------------------------------------------------------|
 E|---------------------------------------------------------------------------|
 A|---------------------------------------------------------------------------|

Bridge: Guitar 1 (Distorted) "Reggie O.D."
 B|---------------------------------------------------------------------------|
F#|---------------------------------------------------------------------------|
 D|---------------------------------------------------------------------------|
 A|--1---------------------------------1--------------------------------------|
 E|--1---------------------------1-----1---------------------------1--2-------|
 A|--1---------------------1--2-----2--1---------------------1--2-------------|
                                                                              |
Bridge: Guitar 2 (Distorted with phase shifter)                               |
 B|------16--15------15----------16--------16--15------------------18-19------|
F#|--16----------16--------16-17----17-16----------16--16----16-17------------|
 D|---------------------------------------------------------------------------|
 A|---------------------------------------------------------------------------|
 E|---------------------------------------------------------------------------|
 A|---------------------------------------------------------------------------|

Bridge: Guitar 1 (Distorted) "Take me away"
 B|---------------------------------------------------------------------------|
F#|---------------------------------------------------------------------------|
 D|---------------------------------------------------------------------------|
 A|--2---------------------4-----------2--------------------------------------|
 E|--2---------------------4-----------2--------------------------------------|
 A|--2---------------------4-----------2---------------------5--4--3--2-------|
                                                                              |
Bridge: Guitar 2 (Distorted with phase shifter)                               |
 B|------19--18------16----18-19-21-19-18--19--18--19-------------------------|
F#|--19----------19------------------------------------19----20-19-18-17------|
 D|---------------------------------------------------------------------------|
 A|---------------------------------------------------------------------------|
 E|---------------------------------------------------------------------------|
 A|---------------------------------------------------------------------------|

Bridge: Guitar 1 (Distorted) "Life blows"
 B|---------------------------------------------------------------------------|
F#|---------------------------------------------------------------------------|
 D|---------------------------------------------------------------------------|
 A|--1---------------------------------1--------------------------------------|
 E|--1---------------------------1-----1---------------------------1--2-------|
 A|--1---------------------1--2-----2--1---------------------1--2-------------|
                                                                              |
Bridge: Guitar 2 (Distorted with phase shifter)                               |
 B|------16--15------15----------16--------16--15------------------18-19------|
F#|--16----------16--------16-17----17-16----------16--16----16-17------------|
 D|---------------------------------------------------------------------------|
 A|---------------------------------------------------------------------------|
 E|---------------------------------------------------------------------------|
 A|---------------------------------------------------------------------------|
                                                                              |
Bridge: Guitar 3 (Distorted with phase shifter)                               |
 B|---------------------------------------------------------------------------|
F#|--------------14----------16--14----------------14---------16--14----------|
 D|--12--13--12------12----13--13---13-12--13--12------12---13--13------------|
 A|---------------------------------------------------------------------------|
 E|---------------------------------------------------------------------------|
 A|---------------------------------------------------------------------------|

Bridge: Guitar 1 (Distorted) "FLUSH"
 B|---------------------------------------------------------------------------|
F#|---------------------------------------------------------------------------|
 D|---------------------------------------------------------------------------|
 A|--1---------------------------------1--------------------------------------|
 E|--1---------------------------1-----1---------------------------1--2-------|
 A|--1---------------------1--2-----2--1---------------------1--2-------------|

Bridge: Guitar 1 (Distorted) PLAY 2 TIMES
 B|---------------------------------------------------------------------------|
F#|---------------------------------------------------------------------------|
 D|---------------------------------------------------------------------------|
 A|---------------------------------------------------------------------------|
 E|---------1------------------------------1----------------------------------|
 A|--1---1------1---1---------------1---1------1---1------0-h1p0-2------------|

Chorus: Guitar 1: (Distorted)
 B|---------------------------------------------------------------------------|
F#|---------------------------------------------------------------------------|
 D|---------------------------------------------------------------------------|
 A|--6-6-6-6-6-6-6-6--4-4-4-4-4-4-4-4--2-2-2-2-2-2-2-2--/6-6-6-6--------------|
 E|--6-6-6-6-6-6-6-6--4-4-4-4-4-4-4-4--2-2-2-2-2-2-2-2--/4-4-4-4--1-1-5-5-----|
 A|--6-6-6-6-6-6-6-6--4-4-4-4-4-4-4-4--2-2-2-2-2-2-2-2------------1-1-5-5-----|
                                                                              |
Chorus: Guitar 2: (Distorted with tremolo)                                    |
 B|---------------------------------------------------------------------------|
F#|---------------------------------------------------------------------------|
 D|--13-----------------------------------------------------------------------|
 A|---x-----------------------------------------------------------------------|
 E|--11-----------------------------------------------------------------------|
 A|---------------------------------------------------------------------------|

Chorus: Guitar 1: (Distorted)
 B|---------------------------------------------------------------------------|
F#|---------------------------------------------------------------------------|
 D|---------------------------------------------------------------------------|
 A|--6-6-6-6-6-6-6-6--4-4-4-4-4-4-4-4--2-2-2-2-2-2-2-2--/6-6-6-6--------------|
 E|--6-6-6-6-6-6-6-6--4-4-4-4-4-4-4-4--2-2-2-2-2-2-2-2--/4-4-4-4--1-1-5-5-----|
 A|--6-6-6-6-6-6-6-6--4-4-4-4-4-4-4-4--2-2-2-2-2-2-2-2------------1-1-5-5-----|
                                                                              |
Chorus: Guitar 2: (Distorted with tremolo)                                    |
 B|---------------------------------------------------------------------------|
F#|---------------------------------------------------------------------------|
 D|--13-----/16-------15-----/18-------16------15--------13-------12----------|
 A|---x-------x--------x-------x--------x-------x---------x--------x----------|
 E|--11-----/18-------13-----/15-------14------13--------11-------10----------|
 A|---------------------------------------------------------------------------|

Chorus: Guitar 1: (Distorted)
 B|---------------------------------------------------------------------------|
F#|---------------------------------------------------------------------------|
 D|---------------------------------------------------------------------------|
 A|--6-6-6-6-6-6-6-6--4-4-4-4-4-4-4-4--2-2-2-2-2-2-2-2--/6-6-6-6--------------|
 E|--6-6-6-6-6-6-6-6--4-4-4-4-4-4-4-4--2-2-2-2-2-2-2-2--/4-4-4-4--1-1-5-5-----|
 A|--6-6-6-6-6-6-6-6--4-4-4-4-4-4-4-4--2-2-2-2-2-2-2-2------------1-1-5-5-----|
                                                                              |
Chorus: Guitar 2: (Distorted with tremolo)                                    |
 B|---------------------------------------------------------------------------|
F#|---------------------------------------------------------------------------|
 D|--13------15--16---15------16---18--16------18---20--18---16---15--12------|
 A|---x-------x---x----x-------x----x---x-------x----x---x----x----x---x------|
 E|--11------13--14---13------14---16--14------16---18--16---14---13--10------|
 A|---------------------------------------------------------------------------|

Chorus: Guitar 1: (Distorted)
 B|---------------------------------------------------------------------------|
F#|---------------------------------------------------------------------------|
 D|---------------------------------------------------------------------------|
 A|--6-6-6-6-6-6-6-6--4-4-4-4-4-4-4-4--2-2-2-2-2-2-2-2--/6-6-6-6--------------|
 E|--6-6-6-6-6-6-6-6--4-4-4-4-4-4-4-4--2-2-2-2-2-2-2-2--/4-4-4-4--1-1-5-5-----|
 A|--6-6-6-6-6-6-6-6--4-4-4-4-4-4-4-4--2-2-2-2-2-2-2-2------------1-1-5-5-----|
                                                                              |
Chorus: Guitar 2: (Distorted with tremolo)                                    |
 B|--------------------------------14---------------14--16--14----------------|
F#|--12------14--16---14------16---14----------16---14--16--14--16--14--11----|
 D|--13------15--16---15------16---------------16---------------16--15--12----|
 A|---------------------------------------------------------------------------|
 E|---------------------------------------------------------------------------|
 A|---------------------------------------------------------------------------|

Finished!


3. LOYALTY


Intro: Guitar 1 (Distorted)
 B|---------------------------------------------------------------------------|
F#|---------------------------------------------------------------------------|
 D|--2----------------2----------------2-------------------------5------------|
 A|--2----------------2----------------2----------------3--------5------------|
 E|--0----------------0----------------0----------------3--------3------------|
 A|-----------------------------------------------------3---------------------|
                                                                              |
Intro: Guitar 2 (Clean)                                                       |
 B|------12---------------12---------------12---------------13----------------|
F#|----11---11----------11---11----------11---11----------11---11---11---11---|
 D|--14-------14------14-------14------14-------14------14-------14---14------|
 A|---------------------------------------------------------------------------|
 E|---------------------------------------------------------------------------|
 A|---------------------------------------------------------------------------|

Intro: Guitar 1 (Distorted)
 B|---------------------------------------------------------------------------|
F#|---------------------------------------------------------------------------|
 D|--2----------------2----------------2-------------------------5------------|
 A|--2----------------2----------------2----------------3--------5------------|
 E|--0----------------0----------------0----------------3--------3------------|
 A|-----------------------------------------------------3---------------------|
                                                                              |
Intro: Guitar 2 (Clean)                                                       |
 B|------12---------------12---------------12---------------13----------------|
F#|----11---11----------11---11----------11---11----------11---11---11---11---|
 D|--14-------14------14-------14------14-------14------14-------14---14------|
 A|---------------------------------------------------------------------------|
 E|---------------------------------------------------------------------------|
 A|---------------------------------------------------------------------------|
                                                                              |
Intro: Guitar 3 (Distorted)                                                   |
 B|-----------5-b-(6)----------5-b-(6)----------5-b(6)------------(6)r-5------|
F#|---------------------------------------------------------------------------|
 D|---------------------------------------------------------------------------|
 A|---------------------------------------------------------------------------|
 E|---------------------------------------------------------------------------|
 A|---------------------------------------------------------------------------|

Verse 1: Guitar 1 (Distorted) PLAY 2 TIMES
 B|---------------------------------------------------------------------------|
F#|---------------------------------------------------------------------------|
 D|--2----------------2----------------2-------------------------5------------|
 A|--2----------------2----------------2----------------3--------5------------|
 E|--0----------------0----------------0----------------3--------3------------|
 A|-----------------------------------------------------3---------------------|

Verse 1: Guitar 1 (Distorted) PLAY 2 TIMES
 B|---------------------------------------------------------------------------|
F#|---------------------------------------------------------------------------|
 D|--2----------------2----------------2-------------------------5------------|
 A|--2----------------2----------------2----------------3--------5------------|
 E|--0----------------0----------------0----------------3--------3------------|
 A|-----------------------------------------------------3---------------------|
                                                                              |
Verse 1: Guitar 2 (Clean)                                                     |
 B|------12---------------12---------------12---------------13----------------|
F#|----11---11----------11---11----------11---11----------11---11---11---11---|
 D|--14-------14------14-------14------14-------14------14-------14---14------|
 A|---------------------------------------------------------------------------|
 E|---------------------------------------------------------------------------|
 A|---------------------------------------------------------------------------|
                                                                              |
Verse 1: Guitar 3 (Distorted) PLAY 2 TIMES                                    |
 B|-----------5-b-(6)----------5-b-(6)----------5-b(6)------------(6)r-5------|
F#|---------------------------------------------------------------------------|
 D|---------------------------------------------------------------------------|
 A|---------------------------------------------------------------------------|
 E|---------------------------------------------------------------------------|
 A|---------------------------------------------------------------------------|

Chorus: Guitar 1 (Distorted)
 B|---------------------------------------------------------------------------|
F#|---------------------------------------------------------------------------|
 D|--5--------------------------------------------------2----------4----------|
 A|--5----------------5----------------3----------------2----------4----------|
 E|--3----------------5----------------3----------------0----------2----------|
 A|-------------------5----------------3--------------------------------------|

Chorus: Guitar 1 (Distorted)
 B|---------------------------------------------------------------------------|
F#|---------------------------------------------------------------------------|
 D|--5------------------------------------------------------------------------|
 A|--5----------------5----------2----------3----------------3----------------|
 E|--3----------------5----------0----------3----------------3----------------|
 A|-------------------5---------------------3----------------3----------------|

Verse 2: Guitar 1 (Distorted) PLAY 3 TIMES
 B|---------------------------------------------------------------------------|
F#|---------------------------------------------------------------------------|
 D|--2----------------2----------------2-------------------------5------------|
 A|--2----------------2----------------2----------------3--------5------------|
 E|--0----------------0----------------0----------------3--------3------------|
Добавлено: 22.06.2012
Другие материалы по этой песне:
  • Аккорды и текст

Страница создана 22.06.2012
http://primanota.ru/brian-head-welch/save-me-from-myself-album-chords.htm
Привет, Гость.
Предлагаем пройти революционный курс по гитаре.
Подарок от PrimaNota.Ru, забирай!