PrimaNota.ru - самый крупный в мире бесплатный архив песенных текстов, аккордов, табулатур и нот


Brian Head Welch - Rebel - таба, видео

Регистрация Запомнить меня
Войти через:  Facebook Google Twitter Vk Yandex Mail.ru

Brian Head Welch - Rebel - таба, видео

Печатать
Просмотров: 220
Уроки эстрадного вокала в Санкт-Петербурге
Brian Head Welch
Re-Bel
Tabbed by U B the band
Tuning Bb F Bb Eb G C

Legend
^-triplet            b-bend             r-return bend            \-slide down

Intro: Guitar 1 (Distorted) PLAY INTRO 2 TIMES
 C|---------------------------------------------------------------------------|
 G|---------------------------------------------------------------------------|
Eb|---------------------------------------------------------------------------|
Bb|---------------------------------------------------------------------------|
 F|--5---5--6--5---6--5--5---8--5--6--3----5---5--8--5---6--5--5---8--5--6--3-|
Bb|--5---5--6--5---6--5--5---8--5--6--3----5---5--8--5---6--5--5---8--5--6--3-|
     ^                ^  ^                 ^                ^  ^              |
                                                                              |
Intro: Guitar 2: (Distorted) PLAY INTRO 2 TIMES                               |
 C|---------------------------------------------------------------------------|
 G|--20------------------b(21)--------r(20)20----------------------18---------|
Eb|---x-------------------------------------x-----------------------x---------|
Bb|--17------------------b(18)--------r(17)17----------------------15---------|
 F|---------------------------------------------------------------------------|
Bb|---------------------------------------------------------------------------|

Verse 1: Guitar 1 (Distorted) PLAY ENTIRE VERSE 2 TIMES
 C|---------------------------------------------------------------------------|
 G|---------------------------------------------------------------------------|
Eb|---------------------------------------------------------------------------|
Bb|---------------------------------------------------------------------------|
 F|--5-----------------------------------------------------------6------------|
Bb|--5-----------------------------------------------------------6------------|

Verse 1: Guitar 1 (Distorted)
 C|---------------------------------------------------------------------------|
 G|---------------------------------------------------------------------------|
Eb|---------------------------------------------------------------------------|
Bb|------------------------------------------------------------------6-----6--|
 F|--5---------------------------------------------------------------4-----4--|
Bb|--5-----------------------------------------------------------5-5---5-5----|

Chorus: Guitar 1 (Distorted) PLAY 2 TIMES
 C|---------------------------------------------------------------------------|
 G|---------------------------------------------------------------------------|
Eb|---------------------------------------------------------------------------|
Bb|---------------------------------------------------------------------------|
 F|--5---5--6--5---6--5--5---8--5--6--3----5---5--8--5---6--5--5---8--5--6--3-|
Bb|--5---5--6--5---6--5--5---8--5--6--3----5---5--8--5---6--5--5---8--5--6--3-|
     ^                ^  ^                 ^                ^  ^              |
                                                                              |
Chorus: Guitar 2: (Distorted) PLAY INTRO 2 TIMES                              |
 C|---------------------------------------------------------------------------|
 G|--20------------------b(21)--------r(20)20----------------------18---------|
Eb|---x-------------------------------------x-----------------------x---------|
Bb|--17------------------b(18)--------r(17)17----------------------15---------|
 F|---------------------------------------------------------------------------|
Bb|---------------------------------------------------------------------------|

Post Chorus: Guitar 1 (Distorted)
 C|---------------------------------------------------------------------------|
 G|---------------------------------------------------------------------------|
Eb|---------------------------------------------------------------------------|
Bb|---------------------------------------------------------------------------|
 F|--5-----------------------------------------------------------6------------|
Bb|--5-----------------------------------------------------------6------------|
                                                                              |
Post Chorus: Guitar 2 (Clean for Piano)                                       |
 C|----------25--------------------------------25-----------------------------|
 G|------23------23--25--23--22------------23------23--25--23--22--23---------|
Eb|--24--------------------------22-------------------------------------------|
Bb|------------------------------------25-------------------------------------|
 F|---------------------------------------------------------------------------|
Bb|---------------------------------------------------------------------------|

Post Chorus: Guitar 2 (Clean for Piano)
 C|----------25--------------------------------25-----------------------------|
 G|------23------23--25--23--22------------23------23--25---------------------|
Eb|--24--------------------------22-------------------------------------------|
Bb|------------------------------------25-------------------------------------|
 F|---------------------------------------------------------------------------|
Bb|---------------------------------------------------------------------------|

Verse 2: Guitar 1 (Distorted) PLAY ENTIRE VERSE 2 TIMES
 C|---------------------------------------------------------------------------|
 G|---------------------------------------------------------------------------|
Eb|---------------------------------------------------------------------------|
Bb|---------------------------------------------------------------------------|
 F|--5-----------------------------------------------------------6------------|
Bb|--5-----------------------------------------------------------6------------|

Verse 2: Guitar 1 (Distorted)
 C|---------------------------------------------------------------------------|
 G|---------------------------------------------------------------------------|
Eb|---------------------------------------------------------------------------|
Bb|------------------------------------------------------------------6-----6--|
 F|--5---------------------------------------------------------------4-----4--|
Bb|--5-----------------------------------------------------------5-5---5-5----|

Chorus: Guitar 1 (Distorted) PLAY 2 TIMES
 C|---------------------------------------------------------------------------|
 G|---------------------------------------------------------------------------|
Eb|---------------------------------------------------------------------------|
Bb|---------------------------------------------------------------------------|
 F|--5---5--6--5---6--5--5---8--5--6--3----5---5--8--5---6--5--5---8--5--6--3-|
Bb|--5---5--6--5---6--5--5---8--5--6--3----5---5--8--5---6--5--5---8--5--6--3-|
     ^                ^  ^                 ^                ^  ^              |
                                                                              |
Chorus: Guitar 2: (Distorted) PLAY INTRO 2 TIMES                              |
 C|---------------------------------------------------------------------------|
 G|--20------------------b(21)--------r(20)20----------------------18---------|
Eb|---x-------------------------------------x-----------------------x---------|
Bb|--17------------------b(18)--------r(17)17----------------------15---------|
 F|---------------------------------------------------------------------------|
Bb|---------------------------------------------------------------------------|

Bridge: Guitar 1 (Distorted)
 C|---------------------------------------------------------------------------|
 G|---------------------------------------------------------------------------|
Eb|---------------------------------------------------------------------------|
Bb|--5--------1--------5--------8----3----1--------0--------5-------8----3----|
 F|--3--------1--------5--------8----3----1--------0--------5----7--8----3----|
Bb|-----------1--------5--------8----3----1--------0--------5----7--8----3----|

Bridge: Guitar 1 (Distorted)
 C|---------------------------------------------------------------------------|
 G|---------------------------------------------------------------------------|
Eb|---------------------------------------------------------------------------|
Bb|--5-5-5-5-5-5---7-7--1-1-1-1-1-1-3-3--5-5-5-5-5-5--------8-8-8-8--3-3-3-3--|
 F|--3-3-3-3-3-3---5-5--1-1-1-1-1-1-1-1--5-5-5-5-5-5---7-7--8-8-8-8--3-3-3-3--|
Bb|----------------0-0--1-1-1-1-1-1------5-5-5-5-5-5---7-7--8-8-8-8--3-3-3-3--|
                                                                              |
Bridge: Guitar 2 (Distorted)                                                  |
 C|-18-15-18-17-15-17--18-15-17--18-15--18-15-18-17-15-17--18-15-17--18-20----|
 G|---------------------------------------------------------------------------|
Eb|---------------------------------------------------------------------------|
Bb|---------------------------------------------------------------------------|
 F|---------------------------------------------------------------------------|
Bb|---------------------------------------------------------------------------|

Bridge: Guitar 1 (Distorted)
 C|---------------------------------------------------------------------------|
 G|---------------------------------------------------------------------------|
Eb|---------------------------------------------------------------------------|
Bb|--1-1-1-1-1-1-1-1--0-0-0-0-8-8-7-7--5-5-5-5-5-5--7-7--8-8-8-8--6-6-6-6-----|
 F|--1-1-1-1-1-1-1-1--0-0-0-0-6-6-0-0--5-5-5-5-5-5--7-7--8-8-8-8--6-6-6-6-----|
Bb|--1-1-1-1-1-1-1-1--0-0-0-0-0-0-0-0--5-5-5-5-5-5--7-7--8-8-8-8--6-6-6-6-----|
                                                                              |
Bridge: Guitar 2 (Distorted)                                                  |
 C|-18-15-18-17-15-17-15-14-17--15-14--18-15-18-17-15-17--18-15-18--20-15-----|
 G|---------------------------------------------------------------------------|
Eb|---------------------------------------------------------------------------|
Bb|---------------------------------------------------------------------------|
 F|---------------------------------------------------------------------------|
Bb|---------------------------------------------------------------------------|

Post Bridge: Guitar 1 (Distorted)
 C|---------------------------------------------------------------------------|
 G|---------------------------------------------------------------------------|
Eb|---------------------------------------------------------------------------|
Bb|---------------------------------------------------------------------------|
 F|--5-----------------------------------------------------------6------------|
Bb|--5-----------------------------------------------------------6------------|
                                                                              |
Post Bridge: Guitar 2 (Clean for Piano) PLAY 2 TIMES                          |
 C|----------25--------------------------------25-----------------------------|
 G|------23------23--25--23--22------------23------23--25--23--22--23---------|
Eb|--24--------------------------22-------------------------------------------|
Bb|------------------------------------25-------------------------------------|
 F|---------------------------------------------------------------------------|
Bb|---------------------------------------------------------------------------|

Post Bridge: Guitar 1 (Distorted)
 C|---------------------------------------------------------------------------|
 G|---------------------------------------------------------------------------|
Eb|---------------------------------------------------------------------------|
Bb|---------------------------------------------------------------------------|
 F|--5-----------------------------------------------------------6------------|
Bb|--5-----------------------------------------------------------6------------|
                                                                              |
Post Bridge: Guitar 2 (Clean for Piano) PLAY 2 TIMES                          |
 C|----------25--------------------------------25-----------------------------|
 G|------23------23--25--23--22------------23------23--25--23--22--23---------|
Eb|--24--------------------------22-------------------------------------------|
Bb|------------------------------------25-------------------------------------|
 F|---------------------------------------------------------------------------|
Bb|---------------------------------------------------------------------------|

Post Bridge: Guitar 1 (Distorted)
 C|---------------------------------------------------------------------------|
 G|---------------------------------------------------------------------------|
Eb|---------------------------------------------------------------------------|
Bb|---------------------------------------------------------------------------|
 F|--5------------------------------------------------------------------------|
Bb|--5------------------------------------------------------------------------|
                                                                              |
Post Bridge: Guitar 2 (Clean for Piano) PLAY 2 TIMES                          |
 C|----------25--------------------------------25-----------------------------|
 G|------23------23--25--23--22------------23------23--25--23--22--23---------|
Eb|--24--------------------------22-------------------------------------------|
Bb|------------------------------------25-------------------------------------|
 F|---------------------------------------------------------------------------|
Bb|---------------------------------------------------------------------------|

Post Bridge: Guitar 1 (Distorted)
 C|---------------------------------------------------------------------------|
 G|---------------------------------------------------------------------------|
Eb|---------------------------------------------------------------------------|
Bb|------------------------------------------------------------------6-----6--|
 F|------------------------------------------------------------------4-----4--|
Bb|--------------------------------------------------------------5-5---5-5----|
                                                                              |
Post Bridge: Guitar 2 (Clean for Piano) PLAY 2 TIMES                          |
 C|----------25--------------------------------25-----------------------------|
 G|------23------23--25--23--22------------23------23--25--23--22--23---------|
Eb|--24--------------------------22-------------------------------------------|
Bb|------------------------------------25-------------------------------------|
 F|---------------------------------------------------------------------------|
Bb|---------------------------------------------------------------------------|

Chorus 2: Guitar 1 (Distorted)
 C|---------------------------------------------------------------------------|
 G|---------------------------------------------------------------------------|
Eb|---------------------------------------------------------------------------|
Bb|--5----------------1----------------5----------------1--------33333333-----|
 F|--5----------------1----------------5----------------1--------11111111-----|
Bb|--5----------------1----------------5----------------1---------------------|

Chorus 2: Guitar 1 (Distorted)
 C|---------------------------------------------------------------------------|
 G|---------------------------------------------------------------------------|
Eb|---------------------------------------------------------------------------|
Bb|--5----------------1----------------5----------------1--------8---\--3-----|
 F|--5----------------1----------------5----------------1--------8---\--3-----|
Bb|--5----------------1----------------5----------------1--------8---\--3-----|

Chorus 2: Guitar 1 (Distorted)
 C|---------------------------------------------------------------------------|
 G|---------------------------------------------------------------------------|
Eb|---------------------------------------------------------------------------|
Bb|--5----------------1----------------5----------------1--------33333333-----|
 F|--5----------------1----------------5----------------1--------11111111-----|
Bb|--5----------------1----------------5----------------1---------------------|

Chorus 2: Guitar 1 (Distorted)
 C|---------------------------------------------------------------------------|
 G|---------------------------------------------------------------------------|
Eb|---------------------------------------------------------------------------|
Bb|--5----------------1----------------5----------------1--------8---\--3-----|
 F|--5----------------1----------------5----------------1--------8---\--3-----|
Bb|--5----------------1----------------5----------------1--------8---\--3-----|

Chorus 2: Guitar 1 (Distorted)
 C|---------------------------------------------------------------------------|
 G|---------------------------------------------------------------------------|
Eb|---------------------------------------------------------------------------|
Bb|--5----------------1----------------5----------------1--------33333333-----|
 F|--5----------------1----------------5----------------1--------11111111-----|
Bb|--5----------------1----------------5----------------1---------------------|

Chorus 2: Guitar 1 (Distorted)
 C|---------------------------------------------------------------------------|
 G|---------------------------------------------------------------------------|
Eb|---------------------------------------------------------------------------|
Bb|--5----------------1-------------------------3-------7--------44444444-----|
 F|--5----------------1----------------3--------1-------5--------55555555-----|
Bb|--5----------------1----------------3----------------0--------00000000-----|

Outro: Guitar 1 (Distorted)
 C|---------------------------------------------------------------------------|
 G|---------------------------------------------------------------------------|
Eb|---------------------------------------------------------------------------|
Bb|--5----------------1----------------5----------------1--------33333333-----|
 F|--5----------------1----------------5----------------1--------11111111-----|
Bb|--5----------------1----------------5----------------1---------------------|
                                                                              |
Outro: Guitar 2 (Distorted)                                                   |
 C|-18-15-18-17-15-17--18-15-17--18-15--18-15-18-17-15-17--18-15-17--18-20----|
 G|---------------------------------------------------------------------------|
Eb|---------------------------------------------------------------------------|
Bb|---------------------------------------------------------------------------|
 F|---------------------------------------------------------------------------|
Bb|---------------------------------------------------------------------------|

Outro: Guitar 1 (Distorted)
 C|---------------------------------------------------------------------------|
 G|---------------------------------------------------------------------------|
Eb|---------------------------------------------------------------------------|
Bb|--5----------------1----------------5----------------1--------8---\--3-----|
 F|--5----------------1----------------5----------------1--------8---\--3-----|
Bb|--5----------------1----------------5----------------1--------8---\--3-----|
                                                                              |
Outro: Guitar 2 (Distorted)                                                   |
 C|-18-15-18-17-15-17-15-14-17--15-14--18-15-18-17-15-17--18-15-18--20-15-----|
 G|---------------------------------------------------------------------------|
Eb|---------------------------------------------------------------------------|
Bb|---------------------------------------------------------------------------|
 F|---------------------------------------------------------------------------|
Bb|---------------------------------------------------------------------------|

Outro: Guitar 1 (Distorted) BEGIN FADE OUT
 C|---------------------------------------------------------------------------|
 G|---------------------------------------------------------------------------|
Eb|---------------------------------------------------------------------------|
Bb|--5----------------1----------------5----------------1--------33333333-----|
 F|--5----------------1----------------5----------------1--------11111111-----|
Bb|--5----------------1----------------5----------------1---------------------|
                                                                              |
Outro: Guitar 2 (Distorted)                                                   |
 C|-18-15-18-17-15-17--18-15-17--18-15--18-15-18-17-15-17--18-15-17--18-20----|
 G|---------------------------------------------------------------------------|
Eb|---------------------------------------------------------------------------|
Bb|---------------------------------------------------------------------------|
 F|---------------------------------------------------------------------------|
Bb|---------------------------------------------------------------------------|

Outro: Guitar 1 (Distorted)
 C|---------------------------------------------------------------------------|
 G|---------------------------------------------------------------------------|
Eb|---------------------------------------------------------------------------|
Bb|--5----------------1----------------5----------------1--------8---\--3-----|
 F|--5----------------1----------------5----------------1--------8---\--3-----|
Bb|--5----------------1----------------5----------------1--------8---\--3-----|
                                                                              |
Outro: Guitar 2 (Distorted)                                                   |
 C|-18-15-18-17-15-17-15-14-17--15-14--18-15-18-17-15-17--18-15-18--20-15-----|
 G|---------------------------------------------------------------------------|
Eb|---------------------------------------------------------------------------|
Bb|---------------------------------------------------------------------------|
 F|---------------------------------------------------------------------------|
Bb|---------------------------------------------------------------------------|

Finished!
Добавлено: 29.11.2013
Вам также может быть интересно:
Другие материалы по этой песне:
  • Аккорды и текст

Страница создана 29.11.2013
http://primanota.ru/brian-head-welch/rebel-chords.htm
Привет, Гость.
Предлагаем пройти революционный курс по гитаре.
Подарок от PrimaNota.Ru, забирай!