PrimaNota.ru - самый крупный в мире бесплатный архив песенных текстов, аккордов, табулатур и нот


Brian Head Welch - Home - таба, видео

Регистрация Запомнить меня
Войти через:  Facebook Google Twitter Vk Yandex Mail.ru

Brian Head Welch - Home - таба, видео

Печатать
Просмотров: 207
Уроки эстрадного вокала в Санкт-Петербурге
Brian Head Welch
Home
Tabbed by U B the band
Tuning Bb F Bb Eb G C

Legend
Pm-palm mute

Intro: Guitar 1 (Distorted)
 C|---------------------------------------------------------------------------|
 G|---------------------------------------------------------------------------|
Eb|--2---2-2--2---2-2--2---2-2--2---2-2---------------------------------------|
Bb|--2---2-2--2---2-2--2---2-2--2---2-2---3---3-3--3---3-3--3---3-3--3---3-3--|
 F|--0---0-0--0---0-0--0---0-0--0---0-0---3---3-3--3---3-3--3---3-3--3---3-3--|
Bb|---------------------------------------3---3-3--3---3-3--3---3-3--3---3-3--|
                                                                              |
Intro: Guitar 2 (Distorted)                                                   |
 C|---------------------------------------------------------------------------|
 G|-----------17-------15-------17--------17----------------15-------17-------|
Eb|--14-----------------------------------------------------------------------|
Bb|---------------------------------------------------------------------------|
 F|---------------------------------------------------------------------------|
Bb|---------------------------------------------------------------------------|

Intro: Guitar 1 (Distorted)
 C|---------------------------------------------------------------------------|
 G|---------------------------------------------------------------------------|
Eb|--2---2-2--2---2-2--2---2-2--2---2-2---------------------------------------|
Bb|--2---2-2--2---2-2--2---2-2--2---2-2---2---2-2--2---2-2--2---2-2--2---2-2--|
 F|--0---0-0--0---0-0--0---0-0--0---0-0---2---2-2--2---2-2--2---2-2--2---2-2--|
Bb|---------------------------------------2---2-2--2---2-2--2---2-2--2---2-2--|
                                                                              |
Intro: Guitar 2 (Distorted)                                                   |
 C|---------------------------------------------------------------------------|
 G|-----------17-------15--------------------------15-------------------------|
Eb|--14-------------------------17--------17----------------17-------16-------|
Bb|---------------------------------------------------------------------------|
 F|---------------------------------------------------------------------------|
Bb|---------------------------------------------------------------------------|

Intro: Guitar 1 (Distorted)
 C|---------------------------------------------------------------------------|
 G|---------------------------------------------------------------------------|
Eb|--2---2-2--2---2-2--2---2-2--5---5-5---------------------------------------|
Bb|--2---2-2--2---2-2--2---2-2--5---5-5---3---3-3--3---3-3--3---3-3--3---3-3--|
 F|--0---0-0--0---0-0--0---0-0--3---3-3---3---3-3--3---3-3--3---3-3--3---3-3--|
Bb|---------------------------------------3---3-3--3---3-3--3---3-3--3---3-3--|
                                                                              |
Intro: Guitar 2 (Distorted)                                                   |
 C|---------------------------------------------------------------------------|
 G|-----------17-------15-------17--------17----------------17----------------|
Eb|--14--------------------------------------------17----------------17-------|
Bb|---------------------------------------------------------------------------|
 F|---------------------------------------------------------------------------|
Bb|---------------------------------------------------------------------------|

Intro: Guitar 1 (Distorted)
 C|---------------------------------------------------------------------------|
 G|---------------------------------------------------------------------------|
Eb|--5---5-5--5---5-5--5---5-5--5---5-5---------------------------------------|
Bb|--5---5-5--5---5-5--5---5-5--5---5-5---2---2-2--2---2-2--6---6-6--6---6-6--|
 F|--3---3-3--3---3-3--3---3-3--3---3-3---2---2-2--2---2-2--6---6-6--6---6-6--|
Bb|---------------------------------------2---2-2--2---2-2--6---6-6--6---6-6--|
                                                                              |
Intro: Guitar 2 (Distorted)                                                   |
 C|---------------------------------------------------------------------------|
 G|--15-------17-------------18--15----------------15-------------------------|
Eb|---------------------------------------17----------------17-------16-------|
Bb|---------------------------------------------------------------------------|
 F|---------------------------------------------------------------------------|
Bb|---------------------------------------------------------------------------|

Verse 1: Guitar 1 (Distorted) PLAY ENTIRE VERSE TWO TIMES
 C|---------------------------------------------------------------------------|
 G|---------------------------------------------------------------------------|
Eb|--2---2-2------------------------------------------------5---5-5-----------|
Bb|--2---2-2-------------2---2-2----------2---2-2--3---3-3--5---5-5--3---3-3--|
 F|--0---0-0-------------2---2-2----------2---2-2--3---3-3--3---3-3--3---3-3--|
Bb|----------------------2---2-2----------2---2-2--3---3-3-----------3---3-3--|

Verse 1: Guitar 1 (Distorted)
 C|---------------------------------------------------------------------------|
 G|---------------------------------------------------------------------------|
Eb|--2---2-2---------------------------------------5---5-5--------------------|
Bb|--2---2-2-------------2---2-2----------2---2-2--5---5-5--3---3-3--3-3-3-3--|
 F|--0---0-0-------------2---2-2----------2---2-2--3---3-3--3---3-3--3-3-3-3--|
Bb|----------------------2---2-2----------2---2-2-----------3---3-3--3-3-3-3--|
                                                                     pmpmpmpm

Chorus: Guitar 1 (Distorted)
 C|---------------------------------------------------------------------------|
 G|---------------------------------------------------------------------------|
Eb|--2---2-2--2---2-2--2---2-2--2---2-2---------------------------------------|
Bb|--2---2-2--2---2-2--2---2-2--2---2-2---3---3-3--3---3-3--3---3-3--3---3-3--|
 F|--0---0-0--0---0-0--0---0-0--0---0-0---3---3-3--3---3-3--3---3-3--3---3-3--|
Bb|---------------------------------------3---3-3--3---3-3--3---3-3--3---3-3--|

Chorus: Guitar 1 (Distorted)
 C|---------------------------------------------------------------------------|
 G|---------------------------------------------------------------------------|
Eb|--2---2-2--2---2-2--2---2-2--2---2-2---------------------------------------|
Bb|--2---2-2--2---2-2--2---2-2--2---2-2---2---2-2--2---2-2--2---2-2--2---2-2--|
 F|--0---0-0--0---0-0--0---0-0--0---0-0---2---2-2--2---2-2--2---2-2--2---2-2--|
Bb|---------------------------------------2---2-2--2---2-2--2---2-2--2---2-2--|

Chorus: Guitar 1 (Distorted)
 C|---------------------------------------------------------------------------|
 G|---------------------------------------------------------------------------|
Eb|--2---2-2--2---2-2--2---2-2--5---5-5---------------------------------------|
Bb|--2---2-2--2---2-2--2---2-2--5---5-5---3---3-3--3---3-3--3---3-3--3---3-3--|
 F|--0---0-0--0---0-0--0---0-0--3---3-3---3---3-3--3---3-3--3---3-3--3---3-3--|
Bb|---------------------------------------3---3-3--3---3-3--3---3-3--3---3-3--|

Chorus: Guitar 1 (Distorted)
 C|---------------------------------------------------------------------------|
 G|---------------------------------------------------------------------------|
Eb|--5---5-5--5---5-5--5---5-5--5---5-5---------------------------------------|
Bb|--5---5-5--5---5-5--5---5-5--5---5-5---2---2-2--2---2-2--6---6-6--6---6-6--|
 F|--3---3-3--3---3-3--3---3-3--3---3-3---2---2-2--2---2-2--6---6-6--6---6-6--|
Bb|---------------------------------------2---2-2--2---2-2--6---6-6--6---6-6--|

Verse 2: Guitar 1 (Distorted) PLAY ENTIRE VERSE TWO TIMES
 C|---------------------------------------------------------------------------|
 G|---------------------------------------------------------------------------|
Eb|--2---2-2------------------------------------------------5---5-5-----------|
Bb|--2---2-2-------------2---2-2----------2---2-2--3---3-3--5---5-5--3---3-3--|
 F|--0---0-0-------------2---2-2----------2---2-2--3---3-3--3---3-3--3---3-3--|
Bb|----------------------2---2-2----------2---2-2--3---3-3-----------3---3-3--|

Verse 2: Guitar 1 (Distorted)
 C|---------------------------------------------------------------------------|
 G|---------------------------------------------------------------------------|
Eb|--2---2-2---------------------------------------5---5-5--------------------|
Bb|--2---2-2-------------2---2-2----------2---2-2--5---5-5--3---3-3--3-3-3-3--|
 F|--0---0-0-------------2---2-2----------2---2-2--3---3-3--3---3-3--3-3-3-3--|
Bb|----------------------2---2-2----------2---2-2-----------3---3-3--3-3-3-3--|
                                                                     pmpmpmpm

Chorus: Guitar 1 (Distorted)
 C|---------------------------------------------------------------------------|
 G|---------------------------------------------------------------------------|
Eb|--2---2-2--2---2-2--2---2-2--2---2-2---------------------------------------|
Bb|--2---2-2--2---2-2--2---2-2--2---2-2---3---3-3--3---3-3--3---3-3--3---3-3--|
 F|--0---0-0--0---0-0--0---0-0--0---0-0---3---3-3--3---3-3--3---3-3--3---3-3--|
Bb|---------------------------------------3---3-3--3---3-3--3---3-3--3---3-3--|

Chorus: Guitar 1 (Distorted)
 C|---------------------------------------------------------------------------|
 G|---------------------------------------------------------------------------|
Eb|--2---2-2--2---2-2--2---2-2--2---2-2---------------------------------------|
Bb|--2---2-2--2---2-2--2---2-2--2---2-2---2---2-2--2---2-2--2---2-2--2---2-2--|
 F|--0---0-0--0---0-0--0---0-0--0---0-0---2---2-2--2---2-2--2---2-2--2---2-2--|
Bb|---------------------------------------2---2-2--2---2-2--2---2-2--2---2-2--|

Chorus: Guitar 1 (Distorted)
 C|---------------------------------------------------------------------------|
 G|---------------------------------------------------------------------------|
Eb|--2---2-2--2---2-2--2---2-2--5---5-5---------------------------------------|
Bb|--2---2-2--2---2-2--2---2-2--5---5-5---3---3-3--3---3-3--3---3-3--3---3-3--|
 F|--0---0-0--0---0-0--0---0-0--3---3-3---3---3-3--3---3-3--3---3-3--3---3-3--|
Bb|---------------------------------------3---3-3--3---3-3--3---3-3--3---3-3--|

Chorus: Guitar 1 (Distorted)
 C|---------------------------------------------------------------------------|
 G|---------------------------------------------------------------------------|
Eb|--5---5-5--5---5-5--5---5-5--5---5-5---------------------------------------|
Bb|--5---5-5--5---5-5--5---5-5--5---5-5---2---2-2--2---2-2--6---6-6--6---6-6--|
 F|--3---3-3--3---3-3--3---3-3--3---3-3---2---2-2--2---2-2--6---6-6--6---6-6--|
Bb|---------------------------------------2---2-2--2---2-2--6---6-6--6---6-6--|

Bridge: Guitar 1 (Distorted)
 C|---------------------------------------------------------------------------|
 G|---------------------------------------------------------------------------|
Eb|--2---2-2--2---2-2--2---2-2--2---2-2---------------------------------------|
Bb|--2---2-2--2---2-2--2---2-2--2---2-2---3---3-3--3---3-3--3---3-3--3---3-3--|
 F|--0---0-0--0---0-0--0---0-0--0---0-0---3---3-3--3---3-3--3---3-3--3---3-3--|
Bb|---------------------------------------3---3-3--3---3-3--3---3-3--3---3-3--|

Bridge: Guitar 1 (Distorted)
 C|---------------------------------------------------------------------------|
 G|---------------------------------------------------------------------------|
Eb|--2---2-2--2---2-2--2---2-2--2---2-2---------------------------------------|
Bb|--2---2-2--2---2-2--2---2-2--2---2-2---2---2-2--2---2-2--2---2-2--2---2-2--|
 F|--0---0-0--0---0-0--0---0-0--0---0-0---2---2-2--2---2-2--2---2-2--2---2-2--|
Bb|---------------------------------------2---2-2--2---2-2--2---2-2--2---2-2--|

Bridge: Guitar 1 (Distorted)
 C|---------------------------------------------------------------------------|
 G|---------------------------------------------------------------------------|
Eb|--2---2-2--2---2-2--2---2-2--5---5-5---------------------------------------|
Bb|--2---2-2--2---2-2--2---2-2--5---5-5---3---3-3--3---3-3--3---3-3--3---3-3--|
 F|--0---0-0--0---0-0--0---0-0--3---3-3---3---3-3--3---3-3--3---3-3--3---3-3--|
Bb|---------------------------------------3---3-3--3---3-3--3---3-3--3---3-3--|

Bridge: Guitar 1 (Distorted)
 C|---------------------------------------------------------------------------|
 G|---------------------------------------------------------------------------|
Eb|--5---5-5--5---5-5--5---5-5--5---5-5---------------------------------------|
Bb|--5---5-5--5---5-5--5---5-5--5---5-5---2---2-2--2---2-2--6---6-6--6---6-6--|
 F|--3---3-3--3---3-3--3---3-3--3---3-3---2---2-2--2---2-2--6---6-6--6---6-6--|
Bb|---------------------------------------2---2-2--2---2-2--6---6-6--6---6-6--|

Bridge: Guitar 1 (Distorted)
 C|---------------------------------------------------------------------------|
 G|---------------------------------------------------------------------------|
Eb|--2------------------------------------------------------------------------|
Bb|--2------------------------------------3-----------------------------------|
 F|--0------------------------------------3-----------------------------------|
Bb|---------------------------------------3-----------------------------------|
                                                                              |
Bridge: Guitar 2 (Distorted with Flanger)                                     |
 C|---------------------------------------------------------------------------|
 G|------15--17----15------13--15-------------15--17----15------13--12--------|
Eb|--14----------------14-------------17--14----------------14----------------|
Bb|---------------------------------------------------------------------------|
 F|---------------------------------------------------------------------------|
Bb|---------------------------------------------------------------------------|

Bridge: Guitar 1 (Distorted)
 C|---------------------------------------------------------------------------|
 G|---------------------------------------------------------------------------|
Eb|--2------------------------------------------------------------------------|
Bb|--2------------------------------------2-----------------------------------|
 F|--0------------------------------------2-----------------------------------|
Bb|---------------------------------------2-----------------------------------|
                                                                              |
Bridge: Guitar 2 (Distorted with Flanger)                                     |
 C|---------------------------------------------------------------------------|
 G|------15--17----15------13--15-------------15--17----15------13--12--------|
Eb|--14----------------14-------------17--14----------------14----------------|
Bb|---------------------------------------------------------------------------|
 F|---------------------------------------------------------------------------|
Bb|---------------------------------------------------------------------------|

Bridge: Guitar 1 (Distorted)
 C|---------------------------------------------------------------------------|
 G|---------------------------------------------------------------------------|
Eb|--2--------------------------5---------------------------------------------|
Bb|--2--------------------------5---------3-----------------------------------|
 F|--0--------------------------3---------3-----------------------------------|
Bb|---------------------------------------3-----------------------------------|
                                                                              |
Bridge: Guitar 2 (Distorted with Flanger)                                     |
 C|---------------------------------------------------------------------------|
 G|------15--17----15------13--15-------------15--17----15------13--12--------|
Eb|--14----------------14-------------17--14----------------14----------------|
Bb|---------------------------------------------------------------------------|
 F|---------------------------------------------------------------------------|
Bb|---------------------------------------------------------------------------|

Bridge: Guitar 1 (Distorted)
 C|---------------------------------------------------------------------------|
 G|---------------------------------------------------------------------------|
Eb|--5------------------------------------------------------------------------|
Bb|--5------------------------------------2-----------------6-----------------|
 F|--3------------------------------------2-----------------6-----------------|
Bb|---------------------------------------2-----------------6-----------------|
                                                                              |
Bridge: Guitar 2 (Distorted with Flanger)                                     |
 C|---------------------------------------------------------------------------|
 G|------15--17----15------13--15-------------15--17----15------13--12--------|
Eb|--14----------------14-------------17--14----------------14----------------|
Bb|---------------------------------------------------------------------------|
 F|---------------------------------------------------------------------------|
Bb|---------------------------------------------------------------------------|

Bridge: Guitar 1 (Distorted)
 C|---------------------------------------------------------------------------|
 G|---------------------------------------------------------------------------|
Eb|--2------2---2------2------2---2-------------------------------------------|
Bb|--2------2---2------2------2---2-------3------3---3------3------3---3------|
 F|--0------0---0------0------0---0-------3------3---3------3------3---3------|
Bb|---------------------------------------3------3---3------3------3---3------|

Bridge: Guitar 1 (Distorted)
 C|---------------------------------------------------------------------------|
 G|---------------------------------------------------------------------------|
Eb|--2------2---2------2------2---2-------------------------------------------|
Bb|--2------2---2------2------2---2-------2------2---2------2------2---2------|
 F|--0------0---0------0------0---0-------2------2---2------2------2---2------|
Bb|---------------------------------------2------2---2------2------2---2------|

Bridge: Guitar 1 (Distorted)
 C|---------------------------------------------------------------------------|
 G|---------------------------------------------------------------------------|
Eb|---------------------------------------------------------------------------|
Bb|--2-2-2-2-2-2-2-5---------------------5-5-5-5-5-5-5-5----------------------|
 F|--0-0-0-0-0-0-0-3---3-3-3-3-3-3-3-3---3-3-3-3-3-3-3-3---2-2-2-2-6-6-6-6----|
Bb|--------------------3-3-3-3-3-3-3-3---------------------2-2-2-2-6-6-6-6----|

Outro: Guitar 1 (Distorted)
 C|---------------------------------------------------------------------------|
 G|---------------------------------------------------------------------------|
Eb|--2---2-2--2---2-2--2---2-2--2---2-2---------------------------------------|
Bb|--2---2-2--2---2-2--2---2-2--2---2-2---3---3-3--3---3-3--3---3-3--3---3-3--|
 F|--0---0-0--0---0-0--0---0-0--0---0-0---3---3-3--3---3-3--3---3-3--3---3-3--|
Bb|---------------------------------------3---3-3--3---3-3--3---3-3--3---3-3--|
                                                                              |
Outro: Guitar 2 (Distorted)                                                   |
 C|---------------------------------------------------------------------------|
 G|-----------17-------15-------17--------17----------------15-------17-------|
Eb|--14-----------------------------------------------------------------------|
Bb|---------------------------------------------------------------------------|
 F|---------------------------------------------------------------------------|
Bb|---------------------------------------------------------------------------|

Outro: Guitar 1 (Distorted)
 C|---------------------------------------------------------------------------|
 G|---------------------------------------------------------------------------|
Eb|--2---2-2--2---2-2--2---2-2--2---2-2---------------------------------------|
Bb|--2---2-2--2---2-2--2---2-2--2---2-2---2---2-2--2---2-2--2---2-2--2---2-2--|
 F|--0---0-0--0---0-0--0---0-0--0---0-0---2---2-2--2---2-2--2---2-2--2---2-2--|
Bb|---------------------------------------2---2-2--2---2-2--2---2-2--2---2-2--|
                                                                              |
Outro: Guitar 2 (Distorted)                                                   |
 C|---------------------------------------------------------------------------|
 G|-----------17-------15--------------------------15-------------------------|
Eb|--14-------------------------17--------17----------------17-------16-------|
Bb|---------------------------------------------------------------------------|
 F|---------------------------------------------------------------------------|
Bb|---------------------------------------------------------------------------|

Outro: Guitar 1 (Distorted)
 C|---------------------------------------------------------------------------|
 G|---------------------------------------------------------------------------|
Eb|--2---2-2--2---2-2--2---2-2--5---5-5---------------------------------------|
Bb|--2---2-2--2---2-2--2---2-2--5---5-5---3---3-3--3---3-3--3---3-3--3---3-3--|
 F|--0---0-0--0---0-0--0---0-0--3---3-3---3---3-3--3---3-3--3---3-3--3---3-3--|
Bb|---------------------------------------3---3-3--3---3-3--3---3-3--3---3-3--|
                                                                              |
Outro: Guitar 2 (Distorted)                                                   |
 C|---------------------------------------------------------------------------|
 G|-----------17-------15-------17--------17----------------17----------------|
Eb|--14--------------------------------------------17----------------17-------|
Bb|---------------------------------------------------------------------------|
 F|---------------------------------------------------------------------------|
Bb|---------------------------------------------------------------------------|

Outro: Guitar 1 (Distorted)
 C|---------------------------------------------------------------------------|
 G|---------------------------------------------------------------------------|
Eb|--5---5-5--5---5-5--5---5-5--5---5-5---------------------------------------|
Bb|--5---5-5--5---5-5--5---5-5--5---5-5---2---2-2--2---2-2--6---6-6--6---6-6--|
 F|--3---3-3--3---3-3--3---3-3--3---3-3---2---2-2--2---2-2--6---6-6--6---6-6--|
Bb|---------------------------------------2---2-2--2---2-2--6---6-6--6---6-6--|
                                                                              |
Outro: Guitar 2 (Distorted)                                                   |
 C|---------------------------------------------------------------------------|
 G|--15-------17-------------18--15----------------15-------------------------|
Eb|---------------------------------------17----------------17-------16-------|
Bb|---------------------------------------------------------------------------|
 F|---------------------------------------------------------------------------|
Bb|---------------------------------------------------------------------------|

Finished!
Добавлено: 12.08.2013
Другие материалы по этой песне:
  • Аккорды и текст

Страница создана 12.08.2013
http://primanota.ru/brian-head-welch/home-chords.htm
Привет, Гость.
Предлагаем пройти революционный курс по гитаре.
Подарок от PrimaNota.Ru, забирай!