PrimaNota.ru - самый крупный в мире бесплатный архив песенных текстов, аккордов, табулатур и нот


Brian Head Welch - Flush - таба, видео

Регистрация Запомнить меня
Войти через:  Facebook Google Twitter Vk Yandex Mail.ru

Brian Head Welch - Flush - таба, видео

Печатать
Просмотров: 268
Artist: Brian Head Welch
Title: Flush
        



Riff 1

D|------------------------------------------------------|
A|------------------------------------------------------|
F|------------------------------------------------------|
C|--3--0--0--10--0--0--0----3--0--0--10--0--3--3--3--4--|
G|--3--0--0--10--0--0--0----3--0--0--10--0--3--3--3--4--|
D|--1--0--0--8---0--0--0----1--0--0--8---0--1--1--1--2--|


Riff 2

D|-----15-16-15----15-----------15-16-15----15--------|
A|--13----------13----13-16--13----------13----13-15--|
F|----------------------------------------------------|
C|----------------------------------------------------|
G|----------------------------------------------------|
D|----------------------------------------------------|


Riff 3

D|--------------------------------------------|
A|--------------------------------------------|
F|--------------------------------------------|
C|--88888888--66666666--44444444--2222--3333--|
G|--88888888--66666666--44444444--2222--3333--|
D|--66666666--44444444--22222222--0000--1111--|


Riff 4

D|-----------------------------------------------------------------------------------------------|
A|-----------------------------------------------------------------------------------------------|
F|--10-10-10-10-17-17-17-17-12-12-12-12-15-15-15-15-13-13-13-13-12-12-12-12-10-10-10-10-9-9-9-9--|
C|-----------------------------------------------------------------------------------------------|
G|--8--8--8--8--15-15-15-15-10-10-10-10-13-13-13-13-11-11-11-11-10-10-10-10-8--8--8--8--7-7-7-7--|
D|-----------------------------------------------------------------------------------------------|


Riff 5

D|----------------------------------------------------|
A|----------------------------------------------------|
F|-----10-9----9----9-10-9----10-9----------10-12-13--|
C|--10------10---10--------10------10-10-10-----------|
G|----------------------------------------------------|
D|----------------------------------------------------|


RIFF 6

D|----------------------------------------------------------|
A|----------------------------------------------------------|
F|-----13-12----13----13-15-13-----13-12----13--------------|
C|--13-------13----13-----------13-------13----14-13-12-11--|
G|----------------------------------------------------------|
D|----------------------------------------------------------|


Riff 7

D|--------------------------------------------------------|
A|---------10--------11---10-----------10--------11---10--|
F|--9-10-9----9-9-10----9----9--9-10-9----9-9-10----9-----|
C|--------------------------------------------------------|
G|--------------------------------------------------------|
D|--------------------------------------------------------|


Riff 8

D|--17---18---19---20--|
A|---------------------|
F|---------------------|
C|---------------------|
G|---------------------|
D|---------------------|


Riff 9

D|------------------------------------------------------------------------------|
A|------------------------------------------------------------------------------|
F|-10-10-12-12-13-13-12-12-13-13-15-15-13-13-15-15-17-17-15-15-13-13-12-12-9-9--|
C|------------------------------------------------------------------------------|
G|-8--8--10-10-11-11-10-10-11-11-13-13-11-11-13-13-15-15-13-13-11-11-10-10-7-7--|
D|------------------------------------------------------------------------------|


D|-----------------------------------------------------------------------------|
A|-----------------------------------------------------------------------------|
F|13-13-15-15-17-17-15-15-17-17-20-20-13-13-15-15-22-22-20-20-13-13-15-15-9-9--|
C|-----------------------------------------------------------------------------|
G|11-11-13-13-15-15-13-13-15-15-18-18-11-11-13-13-20-20-18-18-11-11-13-13-7-7--|            
D|-----------------------------------------------------------------------------|




Riff 1 4x 
Riff 2 2x 
Riff 3 1x 
Riff 4 1x 
Riff 1 6x 
Riff 2 2x 
Riff 3 1x 
Riff 4 1x
Riff 5 1x
Riff 6 1x
Riff 7 1x
Riff 5 2x \
Riff 6 1x -  2x
Riff 7 1x /
Riff 8 1x
Riff 1 2x
Riff 3 1x
Riff 4 1x
Riff 9 1x
Добавлено: 22.06.2012
Другие материалы по этой песне:
  • Аккорды и текст

Страница создана 22.06.2012
http://primanota.ru/brian-head-welch/flush-chords.htm
Привет, Гость.
Предлагаем пройти революционный курс по гитаре.
Подарок от PrimaNota.Ru, забирай!