PrimaNota.ru - самый крупный в мире бесплатный архив песенных текстов, аккордов, табулатур и нот


Brian Head Welch - Die Religion Die - таба, видео

Регистрация Запомнить меня
Войти через:  Facebook Google Twitter Vk Yandex Mail.ru

Brian Head Welch - Die Religion Die - таба, видео

Печатать
Просмотров: 173
Brian Head Welch
Die Religion Die
Tabbed by U B the band
Tuning A E A D F# B

Legend
b-bend                          r-return bend                       /-slide up

Intro: Guitar 1
 B|-----------------12-----------------13----12--10-------12------------------|
F#|--10----13--10---------10--13--10-----------------13---------10--13--12----|
 D|---------------------------------------------------------------------------|
 A|---------------------------------------------------------------------------|
 E|---------------------------------------------------------------------------|
 A|---------------------------------------------------------------------------|

Intro: Guitar 1
 B|-----------------12-----------------13----12--10-------12------------------|
F#|--10----13--10---------10--13--10-----------------13---------10--13--------|
 D|---------------------------------------------------------------------------|
 A|---------------------------------------------------------------------------|
 E|---------------------------------------------------------------------------|
 A|---------------------------------------------------------------------------|

Intro: Guitar 2 (Distorted) PLAY INTRO 2 TIMES
 B|---------------------------------------------------------------------------|
F#|---------------------------------------------------------------------------|
 D|---------------------------------------------------------------------------|
 A|--7--7------7------------------7-------------------7---7-b-----------------|
 E|--7--7------7----7-7-7-7-7-----7----7-7-7-7-7------7---7-b-----------------|
 A|--7--7------7----7-7-7-7-7-----7----7-7-7-7-7------7---7-b-----------------|
                                                                              |
Intro: Guitar 1 (clean with effects)                                          |
 B|-----------------12-----------------13----12--10-------12------------------|
F#|--10----13--10---------10--13--10-----------------13---------10--13--12----|
 D|---------------------------------------------------------------------------|
 A|---------------------------------------------------------------------------|
 E|---------------------------------------------------------------------------|
 A|---------------------------------------------------------------------------|

Intro: Guitar 2 (Distorted)
 B|---------------------------------------------------------------------------|
F#|---------------------------------------------------------------------------|
 D|---------------------------------------------------------------------------|
 A|--7--7------7------------------7-------------------7---7-b-----------------|
 E|--7--7------7----7-7-7-7-7-----7----7-7-7-7-7------7---7-b-----------------|
 A|--7--7------7----7-7-7-7-7-----7----7-7-7-7-7------7---7-b-----------------|
                                                                              |
Intro: Guitar 1 (clean with effects)                                          |
 B|-----------------12-----------------13----12--10-------12------------10----|
F#|--10----13--10---------10--13--10-----------------13---------10--13--------|
 D|---------------------------------------------------------------------------|
 A|---------------------------------------------------------------------------|
 E|---------------------------------------------------------------------------|
 A|---------------------------------------------------------------------------|

Verse 1: Guitar 2 (Distorted) PLAY VERSE 4 TIMES
 B|---------------------------------------------------------------------------|
F#|---------------------------------------------------------------------------|
 D|---------------------------------------------------------------------------|
 A|--7--7------7------------------7-------------------7---7-b-----------------|
 E|--7--7------7----7-7-7-7-7-----7----7-7-7-7-7------7---7-b-----------------|
 A|--7--7------7----7-7-7-7-7-----7----7-7-7-7-7------7---7-b-----------------|
                                                                              |
Verse 1: Guitar 1 (clean with effects)                                        |
 B|-----------------12-----------------13----12--10-------12------------------|
F#|--10----13--10---------10--13--10-----------------13---------10--13--12----|
 D|---------------------------------------------------------------------------|
 A|---------------------------------------------------------------------------|
 E|---------------------------------------------------------------------------|
 A|---------------------------------------------------------------------------|

Verse 1: Guitar 2 (Distorted)
 B|---------------------------------------------------------------------------|
F#|---------------------------------------------------------------------------|
 D|---------------------------------------------------------------------------|
 A|--7--7------7------------------7-------------------7---7-b-----------------|
 E|--7--7------7----7-7-7-7-7-----7----7-7-7-7-7------7---7-b-----------------|
 A|--7--7------7----7-7-7-7-7-----7----7-7-7-7-7------7---7-b-----------------|
                                                                              |
Verse 1: Guitar 1 (clean with effects)                                        |
 B|-----------------12-----------------13----12--10-------12------------10----|
F#|--10----13--10---------10--13--10-----------------13---------10--13--------|
 D|---------------------------------------------------------------------------|
 A|---------------------------------------------------------------------------|
 E|---------------------------------------------------------------------------|
 A|---------------------------------------------------------------------------|

Chorus: Guitar 2 (Distorted)
 B|---------------------------------------------------------------------------|
F#|---------------------------------------------------------------------------|
 D|---------------------------------------------------------------------------|
 A|--7--7------7------------------7-------------------7---7-b-----------------|
 E|--7--7------7----7-7-7-7-7-----7----7-7-7-7-7------7---7-b-----------------|
 A|--7--7------7----7-7-7-7-7-----7----7-7-7-7-7------7---7-b-----------------|
                                                                              |
Chorus: Guitar 1 (clean with effects)                                         |
 B|---------------------------------------------------------------------------|
F#|---------------------------------------------------------------------------|
 D|--9----------------------------------------------------10------------------|
 A|---------------------------------------------------------------------------|
 E|---------------------------------------------------------------------------|
 A|---------------------------------------------------------------------------|

Chorus: Guitar 2 (Distorted)
 B|---------------------------------------------------------------------------|
F#|---------------------------------------------------------------------------|
 D|---------------------------------------------------------------------------|
 A|--7--7------7------------------7-------------------7---7-b-----------------|
 E|--7--7------7----7-7-7-7-7-----7----7-7-7-7-7------7---7-b-----------------|
 A|--7--7------7----7-7-7-7-7-----7----7-7-7-7-7------7---7-b-----------------|
                                                                              |
Chorus: Guitar 1 (clean with effects)                                         |
 B|---------------------------------------------------------------------------|
F#|---------------------------------------------------------------------------|
 D|--7---------------------------------6-------7------9---10------------------|
 A|---------------------------------------------------------------------------|
 E|---------------------------------------------------------------------------|
 A|---------------------------------------------------------------------------|

Chorus: Guitar 2 (Distorted)
 B|---------------------------------------------------------------------------|
F#|---------------------------------------------------------------------------|
 D|---------------------------------------------------------------------------|
 A|--7--7------7------------------7-------------------7---7-b-----------------|
 E|--7--7------7----7-7-7-7-7-----7----7-7-7-7-7------7---7-b-----------------|
 A|--7--7------7----7-7-7-7-7-----7----7-7-7-7-7------7---7-b-----------------|
                                                                              |
Chorus: Guitar 1 (clean with effects)                                         |
 B|---------------------------------------------------------------------------|
F#|---------------------------------------------------------------------------|
 D|--9----------------------------------------------------10------------------|
 A|---------------------------------------------------------------------------|
 E|---------------------------------------------------------------------------|
 A|---------------------------------------------------------------------------|

Chorus: Guitar 2 (Distorted)
 B|---------------------------------------------------------------------------|
F#|---------------------------------------------------------------------------|
 D|---------------------------------------------------------------------------|
 A|--7--7------7------------------7-------------------7---7-b-----------------|
 E|--7--7------7----7-7-7-7-7-----7----7-7-7-7-7------7---7-b-----------------|
 A|--7--7------7----7-7-7-7-7-----7----7-7-7-7-7------7---7-b-----------------|
                                                                              |
Chorus: Guitar 1 (clean with effects)                                         |
 B|---------------------------------------------------------------------------|
F#|---------------------------------------------------------------------------|
 D|--7---------------------------------6--------------------------------------|
 A|---------------------------------------------------------------------------|
 E|---------------------------------------------------------------------------|
 A|---------------------------------------------------------------------------|

Verse 2: Guitar 2 (Distorted) PLAY VERSE 4 TIMES
 B|---------------------------------------------------------------------------|
F#|---------------------------------------------------------------------------|
 D|---------------------------------------------------------------------------|
 A|--7--7------7------------------7-------------------7---7-b-----------------|
 E|--7--7------7----7-7-7-7-7-----7----7-7-7-7-7------7---7-b-----------------|
 A|--7--7------7----7-7-7-7-7-----7----7-7-7-7-7------7---7-b-----------------|

Verse 2: Guitar 2 (Distorted) PLAY VERSE 2 TIMES
 B|---------------------------------------------------------------------------|
F#|---------------------------------------------------------------------------|
 D|---------------------------------------------------------------------------|
 A|--7--7------7------------------7-------------------7---7-b-----------------|
 E|--7--7------7----7-7-7-7-7-----7----7-7-7-7-7------7---7-b-----------------|
 A|--7--7------7----7-7-7-7-7-----7----7-7-7-7-7------7---7-b-----------------|
                                                                              |
Verse 2: Guitar 1 (clean with effects)                                        |
 B|-----------------12-----------------13----12--10-------12------------------|
F#|--10----13--10---------10--13--10-----------------13---------10--13--12----|
 D|---------------------------------------------------------------------------|
 A|---------------------------------------------------------------------------|
 E|---------------------------------------------------------------------------|
 A|---------------------------------------------------------------------------|

Verse 2: Guitar 2 (Distorted)
 B|---------------------------------------------------------------------------|
F#|---------------------------------------------------------------------------|
 D|---------------------------------------------------------------------------|
 A|--7--7------7------------------7-------------------7---7-b-----------------|
 E|--7--7------7----7-7-7-7-7-----7----7-7-7-7-7------7---7-b-----------------|
 A|--7--7------7----7-7-7-7-7-----7----7-7-7-7-7------7---7-b-----------------|
                                                                              |
Verse 2: Guitar 1 (clean with effects)                                        |
 B|-----------------12-----------------13----12--10-------12------------10----|
F#|--10----13--10---------10--13--10-----------------13---------10--13--------|
 D|---------------------------------------------------------------------------|
 A|---------------------------------------------------------------------------|
 E|---------------------------------------------------------------------------|
 A|---------------------------------------------------------------------------|

Chorus: Guitar 2 (Distorted)
 B|---------------------------------------------------------------------------|
F#|---------------------------------------------------------------------------|
 D|---------------------------------------------------------------------------|
 A|--7--7------7------------------7-------------------7---7-b-----------------|
 E|--7--7------7----7-7-7-7-7-----7----7-7-7-7-7------7---7-b-----------------|
 A|--7--7------7----7-7-7-7-7-----7----7-7-7-7-7------7---7-b-----------------|
                                                                              |
Chorus: Guitar 1 (clean with effects)                                         |
 B|---------------------------------------------------------------------------|
F#|---------------------------------------------------------------------------|
 D|--9----------------------------------------------------10------------------|
 A|---------------------------------------------------------------------------|
 E|---------------------------------------------------------------------------|
 A|---------------------------------------------------------------------------|

Chorus: Guitar 2 (Distorted)
 B|---------------------------------------------------------------------------|
F#|---------------------------------------------------------------------------|
 D|---------------------------------------------------------------------------|
 A|--7--7------7------------------7-------------------7---7-b-----------------|
 E|--7--7------7----7-7-7-7-7-----7----7-7-7-7-7------7---7-b-----------------|
 A|--7--7------7----7-7-7-7-7-----7----7-7-7-7-7------7---7-b-----------------|
                                                                              |
Chorus: Guitar 1 (clean with effects)                                         |
 B|---------------------------------------------------------------------------|
F#|---------------------------------------------------------------------------|
 D|--7---------------------------------6-------7------9---10------------------|
 A|---------------------------------------------------------------------------|
 E|---------------------------------------------------------------------------|
 A|---------------------------------------------------------------------------|

Chorus: Guitar 2 (Distorted)
 B|---------------------------------------------------------------------------|
F#|---------------------------------------------------------------------------|
 D|---------------------------------------------------------------------------|
 A|--7--7------7------------------7-------------------7---7-b-----------------|
 E|--7--7------7----7-7-7-7-7-----7----7-7-7-7-7------7---7-b-----------------|
 A|--7--7------7----7-7-7-7-7-----7----7-7-7-7-7------7---7-b-----------------|
                                                                              |
Chorus: Guitar 1 (clean with effects)                                         |
 B|---------------------------------------------------------------------------|
F#|---------------------------------------------------------------------------|
 D|--9----------------------------------------------------10------------------|
 A|---------------------------------------------------------------------------|
 E|---------------------------------------------------------------------------|
 A|---------------------------------------------------------------------------|

Chorus: Guitar 2 (Distorted)
 B|---------------------------------------------------------------------------|
F#|---------------------------------------------------------------------------|
 D|---------------------------------------------------------------------------|
 A|--7--7------7------------------7-------------------7---7-b-----------------|
 E|--7--7------7----7-7-7-7-7-----7----7-7-7-7-7------7---7-b-----------------|
 A|--7--7------7----7-7-7-7-7-----7----7-7-7-7-7------7---7-b-----------------|
                                                                              |
Chorus: Guitar 1 (clean with effects)                                         |
 B|---------------------------------------------------------------------------|
F#|---------------------------------------------------------------------------|
 D|--7---------------------------------6--------------------------------------|
 A|---------------------------------------------------------------------------|
 E|---------------------------------------------------------------------------|
 A|---------------------------------------------------------------------------|

Bridge: Guitar 2 (Distorted)
 B|---------------------------------------------------------------------------|
F#|---------------------------------------------------------------------------|
 D|----------------4----7-------------------5---------------------------------|
 A|--2-------------2----7-------------------5-------------------7-------------|
 E|--2------------------5--------------5----3--------------0----7-------------|
 A|--2---------------------------------5-------------------0----7-------------|

Bridge: Guitar 2 (Distorted)
 B|---------------------------------------------------------------------------|
F#|---------------------------------------------------------------------------|
 D|--5--------------------------------------7--------------9---10-------------|
 A|--5------------------5-------------------7--------------9---10-------------|
 E|--3-------------3----5--------------7----5--------------7----8-----10-/12--|
 A|----------------3----5--------------7------------------------------10-/12--|

Bridge: Guitar 2 (Distorted)
 B|---------------------------------------------------------------------------|
F#|---------------------------------------------------------------------------|
 D|--5--------------------------------------7--------------9---10-------------|
 A|--5------------------5-------------------7--------------9---10-------------|
 E|--3-------------3----5--------------7----5--------------7----8-----10-/12--|
 A|----------------3----5--------------7------------------------------10-/12--|

Bridge: Guitar 2 (Distorted) PLAY 3 TIMES
 B|---------------------------------------------------------------------------|
F#|---------------------------------------------------------------------------|
 D|---------------------------------------------------------------------------|
 A|--7-----------------------------------------------------------------8------|
 E|--7-----------------------------------------------------------------8------|
 A|--7-----------------------------------------------------------------8------|
                                                                              |
Bridge: Guitar 1 (clean with effects)                                         |
 B|---------------------------------------------------------------------------|
F#|--17------------------------b(18)------r(17)------------------------15-----|
 D|---------------------------------------------------------------------------|
 A|---------------------------------------------------------------------------|
 E|---------------------------------------------------------------------------|
 A|---------------------------------------------------------------------------|

Bridge: Guitar 2 (Distorted) PLAY 1 TIME
 B|---------------------------------------------------------------------------|
F#|---------------------------------------------------------------------------|
 D|---------------------------------------------------------------------------|
 A|--7-----------------------------------------------------------------8------|
 E|--7-----------------------------------------------------------------8------|
 A|--7-----------------------------------------------------------------8------|
                                                                              |
Bridge: Guitar 1 (clean with effects)                                         |
 B|---------------------------------------------------------------------------|
F#|--17------------------------b(18)------r(17)------------------------15--14-|
 D|---------------------------------------------------------------------------|
 A|---------------------------------------------------------------------------|
 E|---------------------------------------------------------------------------|
 A|---------------------------------------------------------------------------|

Bridge: Guitar 2 (Distorted) PLAY 3 TIMES
 B|---------------------------------------------------------------------------|
F#|---------------------------------------------------------------------------|
 D|---------------------------------------------------------------------------|
 A|--7-----------------------------------------------------------------8------|
 E|--7-----------------------------------------------------------------8------|
 A|--7-----------------------------------------------------------------8------|
                                                                              |
Bridge: Guitar 1 (clean with effects)                                         |
 B|---------------------------------------------------------------------------|
F#|--17------------------------b(18)------r(17)------------------------15-----|
 D|---------------------------------------------------------------------------|
 A|---------------------------------------------------------------------------|
 E|---------------------------------------------------------------------------|
 A|---------------------------------------------------------------------------|

Bridge: Guitar 2 (Distorted) PLAY 1 TIME
 B|---------------------------------------------------------------------------|
F#|---------------------------------------------------------------------------|
 D|---------------------------------------------------------------------------|
 A|--7-----------------------------------------------------------------8------|
 E|--7-----------------------------------------------------------------8------|
 A|--7-----------------------------------------------------------------8------|
                                                                              |
Bridge: Guitar 1 (clean with effects)                                         |
 B|---------------------------------------------------------------------------|
F#|--17------------------------b(18)------r(17)------------------------15--14-|
 D|---------------------------------------------------------------------------|
 A|---------------------------------------------------------------------------|
 E|---------------------------------------------------------------------------|
 A|---------------------------------------------------------------------------|

Bridge: Guitar 2 (Distorted) "DIE DIE DIE..., RELIGION"
 B|---------------------------------------------------------------------------|
F#|---------------------------------------------------------------------------|
 D|---------------------------------9-------------9---------------------9-----|
 A|--7------9----6------7------5----8------7------8----5------7----5----8-----|
 E|--6------8----5------6------4----7------6------7----4------6----4----7-----|
 A|--0------0----0------0------0----0------0------0----0------0----0----0-----|

Outro: Guitar 2 (Distorted)
 B|---------------------------------------------------------------------------|
F#|---------------------------------------------------------------------------|
 D|----------------4----7-------------------5---------------------------------|
 A|--2-------------2----7-------------------5-------------------7-------------|
 E|--2------------------5--------------5----3--------------0----7-------------|
 A|--2---------------------------------5-------------------0----7-------------|

Outro: Guitar 2 (Distorted)
 B|---------------------------------------------------------------------------|
F#|---------------------------------------------------------------------------|
 D|--7-----------------7-----------------7-----------------7------------------|
 A|--7----7------------7----7------------7----7------------7----7-------------|
 E|--5----7------------5----7------------5----7------------5----7-------------|
 A|-------7-----------------7-----------------7-----------------7-------------|

Finished!
Добавлено: 14.11.2013
Другие материалы по этой песне:
  • Аккорды и текст

Страница создана 14.11.2013
http://primanota.ru/brian-head-welch/die-religion-die-chords.htm
Привет, Гость.
Предлагаем пройти революционный курс по гитаре.
Подарок от PrimaNota.Ru, забирай!