PrimaNota.ru - самый крупный в мире бесплатный архив песенных текстов, аккордов, табулатур и нот


Brian Fennell - Secret Smiles - таба, видео

Регистрация Запомнить меня
Войти через:  Facebook Google Twitter Vk Yandex Mail.ru

Brian Fennell - Secret Smiles - таба, видео

Печатать
Просмотров: 167
This is a great song by Brian Fennell released 2005 with his album "Safety 
Songs".I think this is pretty much accurate. I did the tab and Lyrics by ear 
because it couldn't be found anywhere on the web. If there are any mistakes please let me know !
So far,
Enjoy !

Brian Fennell – Secret Smiles (key – Dm)
HomePage - http://www.purevolume.com/brianfennell


Fill 1:

e|-----------|---------|---------|---------|---------|---------|---------|
B|-----------|--13--13-|---------|--13--13-|---------|-11---11-|---------|
G|-10--10----|---------|-10--10--|---------|-09--09--|---------|---------|
D|-----------|---------|---------|---------|---------|---------|---------|
A|-----------|---------|---------|---------|---------|---------|---------|
E|-----------|---------|---------|---------|---------|---------|---------|

e|-----------|---------|
B|-----------|-11-10---|
G|-09--09----|-------10|
D|-----------|---------|
A|-----------|---------|
E|-----------|---------|2x      


Dm      Bb       F
Roses marked the path
Dm         Bb    Am
The path I chose tonight
Dm    Bb  F
Beautiful disguise
Dm          Bb    Am
With hiding death tonight
Bb         F    C
Whoho whoa whoa whoa
Bb         F    C 
Whoho whoa whoa whoa

Fill 1 

Dm   Bb    F
I am on my way
Dm      Bb          Am
Falling through the sea
Dm  Bb      F
All I have inside
Dm       Bb     Am
Floating of the sea
Bb         F    C
Whoho whoa whoa whoa
Bb         F    C 
Whoho whoa whoa whoa


Chorus
F      Bb           Dm      C
Secret Smiles bring me down again
F   Bb      Dm             C
Im already dying from the last time
F      Bb       Dm          C
I cant fight if Im on this side
F      Bb           Dm   C
Secret Smiles watch me drown
Oh

Fill 1

Dm    Bb   F
I was born today 
Dm        Bb         Am
Wilts felt down like rain
Dm     Bb       F
I have found my heart
Dm    Bb         Am
Alive out in the rain

Chorus 2x
F      Bb           Dm      C
Secret Smiles bring me down again
F   Bb      Dm             C
Im already dying from the last time
F      Bb       Dm          C
I cant fight if Im on this side
F      Bb           Dm   C
Secret Smiles watch me drown
Oh...

Fill 1
Добавлено: 30.07.2012
Другие материалы по этой песне:
  • Аккорды и текст

Страница создана 30.07.2012
http://primanota.ru/brian-fennell/secret-smiles-chords.htm
Привет, Гость.
Предлагаем пройти революционный курс по гитаре.
Подарок от PrimaNota.Ru, забирай!