PrimaNota.ru - самый крупный в мире бесплатный архив песенных текстов, аккордов, табулатур и нот


Brian Doerkson - Eternity - таба, видео

Регистрация Запомнить меня
Войти через:  Facebook Google Twitter Vk Yandex Mail.ru

Brian Doerkson - Eternity - таба, видео

Печатать
Просмотров: 91
		   From tberg@dax.cc.uakron.edu Tue Jan 23 14:59:47 1996

                                  ETERNITY
                             by : Brian Doerkson
  from the 'Touching the Father's Heart' series #18 (Light the Fire Again)
                            Tabbed by : Tim Berg
                  Intro Corrected by: John Kim (jkim@jhu.edu)

Tablature explanation :
  h - Hammer-on
  / - Slide up

     A2              A/C#  D2
e--------0------0-------------------------------0--------0----------|
B----------0-----------------2--------2-------3--------3------------|
G-----2------2-------------2--------2-------2--------2--------------|
D---2--------------------2--------2-------0-------------------------|
A-0------------------2/4--------4-----------------------------------|
E-------------------------------------------------------------------|

  Esus  --  E
e-----------0-------0-|
B---------0----0------|
G-----1h2---------2---|
D---2-----------------|
A---------------------|
E-0-------------------|

Verse 1 :
A         A/C#               D2
I will be yours, you will be mine
   E
Together in eternity
A             A/C#            D2
Our hearts of love will be entwined
   E                    F#m (see note below *)
Together in eternity
   D                 A
Forever in eternity


Bridge :
C#m7  D		       Bm7	   E
      No more tears of pain in our eyes
C#m7  D              A
      No more fear or shame
    E		    F#m
For we will be with you
    D                E
Yes we will be with you

(Then, start the main progression again and continue throughout rest
 of the song.)


Verse 2 : 

I, I can hear Him saying (I can hear Him saying)

No more (no more), no more (no more), No more tears

No more tears, no more pain

No more fear, no more shame

No more tears, no more pain

No more fear, no more shame

Nothing will never come between us, oh, nothing

I can hear Him saying

Nothing will never come between us

Oh, I can hear Him saying

Nothing will never come between us

Nothing will never come between us


We will worship, we will worship You forever (4x)



(*) Play the F#m like this :
e----------2---|
B--------2-----|
G------2-------|
D----4---------|
A--------------|
E--2-----------|     
Добавлено: 06.09.2013
Другие материалы по этой песне:
  • Аккорды и текст

Страница создана 06.09.2013
http://primanota.ru/brian-doerkson/eternity-chords.htm
Привет, Гость.
Предлагаем пройти революционный курс по гитаре.
Подарок от PrimaNota.Ru, забирай!