PrimaNota.ru - самый крупный в мире бесплатный архив песенных текстов, аккордов, табулатур и нот


Brian Davis - Against The World - аккорды и текст, видео

Регистрация Запомнить меня
Войти через:  Facebook Google Twitter Vk Yandex Mail.ru

Brian Davis - Against The World - аккорды и текст, видео

Печатать
Просмотров: 78
Against The World
Brian Davis
My first chord/tab. Watched Brian play this live and did it by eye and ear. Just
listen for the strumming pattern.
out. You can play this in standard tuning with capo anywhere or you can play it a
half step down if you like the boom on the Em and C.
Official website: http://www.briandavislive.com/

Chords used: G: --3--     C: --3--     Em: --0--      Em: --3--  Asus2: --0--
                --3--        --3--         --0--          --3--         --0--
                --0--        --0--         --0--  or      --0--         --2--
                --0--        --2--         --2--          --2--         --2--
                --2--        --3--         --2--          --2--         --0--
                --3--        --0--         --0--          --0--         --0--

Lead:

e|---------------------------------------------------------------------------|
B|---------------------------------------------------------------------------|
G|-----------0---2s4---------0----2s4s2p0----------------0-----2s4---2-------|
D|---------------------------------------------------------------------------|
A|------------------------------------------------3--------------------------|
E|---3-------------------3---------------------------------------------------|
                                                                   C
e|-----------------------------------------------------------------3-----|
B|-----------------------------------------------------------------3-----|
G|----5---4---0------5---4-----------0----2s4-------2s4s2p0--------0-----|
D|-----------------------------------------------------------------2-----|
A|-----------------------------------------------------------------3-----|
E|-----------------------------0-----------------0-----------------0-----|

G
Well those tears in your eyes
They got me seein' red

C
Girl I hate the way they get to you
With all the lies that they spread

Em
Ain't that small-town talk
C
Like the devil on your shoulder
It gets old girl, It gets so old girl
G
But let 'em talk, let 'em talk baby
C
Cause girl I don't give a damn what they say
Em
Cause you're the one reason God made me
C
And I'm gonna love you anyway
G
And if it hurts,
Just know we're gonna make it work
C
I got your back
You got my heart girl
Em
No matter what, you got to remember
C            D               G
It's you and me, against the world
G
They gonna throw them sticks and stones
Try to tear us right in two
C
Oh cause we got what they want
Yeah what we got is true

Asus2(Add E and B strings on 3rd)
So let 'em do what they gonna do
Well baby we can take it,
C
We're gonna make it
We're gonna make it
G
So let 'em talk, let 'em talk baby
C
Cause girl I don't give a damn what they say
Em
Cause you're the one reason God made me
C
And I'm gonna love you anyway
G
If it hurts,
Just know we're gonna make it work
C
I got your back
You got my heart girl
Em
No matter what, you got to remember
C            D               G
It's you and me, against the world

(Break) G      C       D (Listen for pattern)

G
So let 'em talk, let 'em talk baby
C
Cause girl I don't give a damn what they say
Em
Cause you're the one reason God made me
C
And I'm gonna love you anyway
G
And if it hurts,
Just know we're gonna make it work
C
I got your back
You got my heart girl
Em
No matter what, you got to remember
C            D               G
It's you and me, against the world

(Lead Here)
(No guitar here)
And I don't give a damn what they say
Добавлено: 21.07.2013
Вам также может быть интересно:
Другие материалы по этой песне:
  • Аккорды и текст

Страница создана 21.07.2013
http://primanota.ru/brian-davis/against-the-world-chords.htm
Привет, Гость.
Предлагаем пройти революционный курс по гитаре.
Подарок от PrimaNota.Ru, забирай!